Tiamat - Gaia Chords & Tabs

 

Gaia Chords & Tabs

Tiamat Chords & Tabs

Version: 1 Type: Tab 0 ratings
1 star 2 stars 3 stars 4 stars 5 stars
comments

Gaia Tab

                TIAMAT - GAIA
          From the Album "Wildhoney"

=>transcribed by The Pastor from France

1ST SOLO : 
|--------------------------------|
|--------------------------------|
|----------10~-------------------|
|-------7-------7/10--10p8h10----|
|----5---------------------------|
|--------------------------------|

|-------/17--13-------------------------------------------|
|----------------15---------------------------------------|
|--------------------14------12---14--15--14--14h15p14----|
|----7-------------------15-------------------------------|
|---------------------------------------------------------|
|---------------------------------------------------------|

|----------------------------------|
|----------------------------------|
|-----------------------------7----|
|----7--7h8------------5h7h8-------|
|------------5--5h7h8--------------|
|----------------------------------|

|------------------------------------------------------|
|------------------------------------------------------|
|---------------10--9--7--7h9--7--9--9p7h9--7--7/14----|
|----7--7h8--5-----------------------------------------|
|------------------------------------------------------|
|------------------------------------------------------|



KEYBOARD PART :
|------------------------------------------|
|------------------------------------------|
|--------7-----10----------7-9-10-10-10----|
|----------7------7------7-----------------|
|----5-5-----5------5--5-------------------|
|------------------------------------------|

|--------------------------------|
|--------------------------------|
|----9-9----9----9----9----------|
|--------10---10---10---10-------|
|--------------------------10----|
|--------------------------------|

|------------------------------------|
|------------------------------------|
|----9-9--7--7-7--7-7-7--9--9---7----|
|------------------------------------|
|---------5--5-5--5-5-5--10-10--5----|
|------------------------------------|

|----------------------------------|
|----------------------------------|
|--------7-9-10-----7-9-----7-9----|
|------7----------7-------7--------|
|----5----------5-------5----------|
|----------------------------------|

|----------------------------------|
|----------------------------------|
|----10-10--12-10--12-10--12-10----|
|----0--0---0--0---0--0---0--0-----|
|----------------------------------|
|----------------------------------|

|-------------------------------------------------------|
|-------------------------------------------------------|
|--------10-10---10--9----------9----9-------------9----|
|------7-------7----------10------10---10----10---------|
|----5-----------------10----10-----------10----10------|
|-------------------------------------------------------|

|-----------------------------------------|
|-----------------------------------------|
|----10-9----9----7-7--7-7-7--9--9---7----|
|---------10------------------------------|
|-----------------5-5--5-5-5--10-10--5----|
|-----------------------------------------|

|---------------------------------------|
|---------------------------------------|
|--------7-9-----7-9-----7-9-10-9-------|
|------7-------7-------7----------8~----|
|----5-------5-------5------------------|
|---------------------------------------|


[ Tab from: http://www.guitartabs.cc/tabs/t/tiamat/gaia_tab.html ]
2ND SOLO :
|----------------------------------------------------|
|----------------------------------------------------|
|----------/9--10--9---10--10--10/12--12/14-12h14----|
|-------7--------------------------------------------|
|----5-----------------------------------------------|
|----------------------------------------------------|

|-----------------------------------------------|
|----/18--------------18--------------/18\15----|
|---------15--14--15------15--14--15------------|
|-----------------------------------------------|
|-----------------------------------------------|
|-----------------------------------------------|

|---------------------------------------------------|
|---a.h-------------------------------13/15---------|
|----7----------------------------10--------14\-----|
|-------7---------7---5---7---7-8--------------\----|
|----------8-5~-----8-------8-----------------------|
|---------------------------------------------------|

|----------------------------------|
|----/15--15-17-18-17-15-15/17~----|
|----------------------------------|
|----------------------------------|
|----------------------------------|
|----------------------------------|

|-------/17-13-----------------/17-15------------------------|
|----15--------15-----------15--------18-17bb-17h18p17-15----|
|-----------------14-----14----------------------------------|
|--------------------12--------------------------------------|
|------------------------------------------------------------|
|------------------------------------------------------------|

|--------------------------------------------------|
|-----------10-------------------------------------|
|----7-9-10----7--7-9-9h10-------------------------|
|--------------------------10--8-8/10~--8/12\8~----|
|--------------------------------------------------|
|--------------------------------------------------|

|-------------------------------------|
|-------------------------------------|
|-------------------------------------|
|----7-8--8p7h8--10p8p7h8--8p7/12~----|
|-------------------------------------|
|-------------------------------------|

|--------------------------------------------12-----12/15----|
|----15\10/18\8/11\6/10---------10-13--10-13-----13----------|
|-----------------------9--7-10------------------------------|
|------------------------------------------------------------|
|------------------------------------------------------------|
|------------------------------------------------------------|

|----12-----10-------------------------------|
|-------13-----10----11~---------------------|
|-----------------10-----12~-----------------|
|----------------------------10-10-10/12~----|
|--------------------------------------------|
|--------------------------------------------|

|-------------------------------------------------------------------------------|
|-------------------------------------------------------------------------------|
|-------------------------------------------------------------------------------|
|----7-7h8-----------5/8\5/7--7-7h8p7--8-7-5-------------------5-7-8-...fade----|
|----------5--5-7-8--------------------------8-7-5-4---4-5-7-8------------------|
|----------------------------------------------------6--------------------------|



Any corrections or suggestions :
                        => e-mail me  Pastor@Wanadoo.fr
Comments