Tiamat - Clouds Chords & Tabs

 

Clouds Chords & Tabs

Tiamat Chords & Tabs

Version: 1 Type: Tab 0 ratings
1 star 2 stars 3 stars 4 stars 5 stars
comments

Clouds Tab

                              Clouds by Tiamat
                             from album Clouds


Transcribed by Joonas Autio
ornskuge@ksilta.edu.ouka.fi
Tune one step down


Riff 1 *=play with "upstroke" 
|--------------------------------------------------------------
|--------------------------------------------------------------
|--------------------------------------------------------------
|------------------------*--------*--------------*-------*-----
|-2h4-(4)-(4)--6-----5-5-5-5--5-5-5-5--6-----5-5-5-5--5-5-5-5--
|-2---(2)-(2)--4-----3-3-3-3--3-3-3-3--4-----3-3-3-3--3-3-3-3--

Riff 2 "If I walk on water today..."
|----------------------------------------------------------------
|----------------------------------------------------------------
|----------------------------------------------------------------
|-4---4---2/4\2---4---4---4/2/1---4---4---2/4\2---4---4---4\2\1--
|----------------------------------------------------------------
|----------------------------------------------------------------


Riff 3
|------------------------------------------------------------
|------------------------------------------------------------
|------------------------------------------------------------
|-5--5-5-5-5-5--4--4-4-4-4-4-/5--5-5-5-5-5-------------------
|-5--5-5-5-5-5--4--4-4-4-4-4-/5--5-5-5-5-5--5-7-5-4-5-4------
|-3--3-3-3-3-3--2--2-2-2-2-2-/3--3-3-3-3-3--------------5----
      PM-------|   PM------|     PM------|

Riff 4 "Step outside the clouds..."
|--------------------------------
|--------------------------------
|--------------------------------
|--------------------------------
|-6-----12---------7----6--4/5\4--
|-4-----10---7-8-9-5----4--2/3\2--


Solo:
|--------------------------------------------
|---------------------------10-10-10h11p10---
|----10-10----12-12--12/13-------------------
|--------------------------------------------
|-?------------------------------------------
|--------------------------------------------

|--------------------------------------------------------------------------
|--------------------------------------------------------------------------
|-13/15---15-17-15-14-12-14-12--12-----------------------------------------
|-----------------------------15---15-13/15-12----12-14-15-15-15-14-12-14--
|--------------------------------------------------------------------------
|--------------------------------------------------------------------------
[ Tab from: http://www.guitartabs.cc/tabs/t/tiamat/clouds_tab.html ]
|------------------------------------------------------------------------
|------------------------------------------------------------------------
|-------14b-14----17-15-14-15-14--14-------------------------------------
|-------------------------------17--17-15-17-15--15----------------------
|--------------------------------------------------17--17-15-13-13b-12---
|-15-17------------------------------------------------------------------
  PM PM

OK, at this point i got stuck, and bored, so for now on there's no guarentees 
that this will be correct...
|--------------------------------------------------------------
|--------------------------------------------------------------
|--------------------------------------------------------------
|-------------------------------------------15b----15-14-12----
|-15-15-15-15-15h17p5---15-15-15-15-14-12------------------15--
|--------------------------------------------------------------

                            Fast part
|-----------------------------------------------------------------------------
|-----------------------------------------------------------------------------
|---14-15-14-12-14-12--14----19*---17-15-19*---17-15-21*----19-17-21*----19-17
|-15-----------------15-------------------------------------------------------
|-----------------------------------------------------------------------------
|-----------------------------------------------------------------------------

|------------------------------------------------------------
|------------------------------------------------------------
|-17-19-17-15-17-15--15--------------------------------------
|------------------18--18-17-18-17-15-17-15--15-18-----------
|------------------------------------------17----------------
|------------------------------------------------------------

Rhythm under solo:                      (under acoustic part)

|----------------------------------------------------------
|--------------------------------------*-------------------
|----------------------------------------------------------
|--------------------------------------*-------------------
|-6------7--5------7--4-----7----3---------2---------------
|-4------5--3------5--2-----5----1-----*---0---------------

Riff 5 Acoustic: 
|---------------------------------------------------------
|---------------------------------------------------------
|---------------------------------------------------------
|---------------------0-----------------------0-4---------
|---4---4-0-----4---4-------4---4-0-----4---4-------------
|-2---2-------2---2-------2---2-------2---2---------------

Outro (something like this)
|------------------------
|------------------------
|------------------------
|------------------------
|-2-3-4-5-4-3-1----------
|-3-4-5-6-5-4-2----------

Yeah, and if someone wants to correct this song, please send me correction
(like always)
Comments