Thyrfing - Vargavinter Chords & Tabs

 

Vargavinter Chords & Tabs

Thyrfing Chords & Tabs

Version: 1 Type: Tab 0 ratings
1 star 2 stars 3 stars 4 stars 5 stars
comments

Vargavinter Tab

   
Band: Thyrfing
Album: Thyrfing
Song: Vargavinter
Tabbed by: Martijn Wietsma
Email: northerland@yahoo.co.uk
Date: 08-03-2003
Redo of whole tab: 01-04-2004

Standard E Tuning

riff a
|-----------------------------------------------------------|
|-----------------------------------------------------------|
|-------5--5----------5--5----------------------------------|
|-5--5--3--3----5--5--3--3----------------------------------|
|-3--3----------3--3----------------------------------------|
|-----------------------------------------------------------|

riff b
|-----------------------------------------------------------|
|-----------------------------------------------------------|
|-77777777-77777777-55555555-55555555-----------------------|
|-55555555-55555555-33333333-33333333-----------------------|
|-----------------------------------------------------------|
|-----------------------------------------------------------|

|-----------------------------------------------------------|
|-----------------------------------------------------------|
|-77777777-77777777-----5-----------------------------------|
|-55555555-55555555--5--3-----------------------------------|
|--------------------3--------------------------------------|
|-----------------------------------------------------------|

repeat riff a 1x
[ Tab from: http://www.guitartabs.cc/tabs/t/thyrfing/vargavinter_tab.html ]
riff C (0:42)
|-----------------------------------------------------------|
|-----------------------------------------------------------|
|-----------------------------------------------------------|
|-----4---888/10--------------------------------------------|
|-3---4---666/-8--------------------------------------------|
|-1---4-----------------------------------------------------|
                                                (4x)
riff d = missing (0:55)

repeat riff c 4x
repeat riff D 1x
repeat riff c 4x
repeat riff D 1x
repeat riff B 1x (1:46)
repeat riff a 1x

repeat riff E (2:08)
|-----------------------------------------------------------|
|-----------------------------------------------------------|
|-77777777-77777777-55555555-55555555-----------------------|
|-55555555-55555555-33333333-33333333-----------------------|
|-----------------------------------------------------------|
|-----------------------------------------------------------|

|-----------------------------------------------------------|
|-----------------------------------------------------------|
|-77777777-77777777-----------------------------------------|
|-55555555-55555555-----------------------------------------|
|------------------------6--6-------------------------------|
|------------------------4--4-------------------------------|

riff F (2:22)
|-----------------------------------------------------------|
|-----------------------------------------------------------|
|-----------------------------------------------------------|
|-------------------------------------------------4---------|
|-6--6/7\6\4---6--6/7/9\7---6--6/7\6\4---6--6666--2---------|
|-4--4/5\4\2---4--4/5/7\5---4--4/5\4\2---4--4444------------|

riff G (2:40)
|-----------------------------------------------------------|
|-----------------------------------------------------------|
|-----------------------------------------------------------|
|-----------------------------------------------------------|
|-6-6-6-6--6-6-7-6-4-----6-6-6-6--6-6-7-9-7--(2x)----6------|
|-4-4-4-4--4-4-5-4-2-----4-4-4-4--4-4-5-7-5----------4------|

(end of song)
Comments