Thyrfing - Vansinnesvisan Chords & Tabs

 

Vansinnesvisan Chords & Tabs

Thyrfing Chords & Tabs

Version: 1 Type: Tab 0 ratings
1 star 2 stars 3 stars 4 stars 5 stars
comments

Vansinnesvisan Tab

                                  VANSINNESVISAN
                             (As recorded by Thyrfing
                        from the 2002 album Vansinnesvisor)
                           VERSION 1.0 - January 24th 2003


Transcribed by Cristi Rachitovan
mail: decietful@hotmail.com
IRC:  undernet's #metal as "Stromblad"

h = hammer-on       " = tremolo pick       ~ = vibrato
p = pull-off        X\= pickstroke        () = a note that you struck before
/ = slide           . = palm mute              and still ringing
* = see below       x = mute the note after you strike it


Tune down 1 whole step to D, that is DGCFAd.

Timing is not noted, just vaguely represented for easier reading, but you'll
get it right with no problems. Oh, and use heavy palm muting, this is a crushing
song, don't "punk" it.

Here we go:

RIFF A (0:00 - 0:24)
D|--------------------------------------------------|
A|--------------------------------------------------|
F|--4----------4----------4----------3--------------|
C|--4----------4----------4----------3---------X\---|
G|--2----------2----------2----------1---------X\---|
D|--2----------2----------2----------1---------X\---|


RIFF B1 -2x (0:24 - 0:47) + little small variations on G2
D|---------------------------------------|
A|---------------------------------------|
F|---------------------------------------| G1
C|--4---------5-5-9-9-4---------5-5-9-9--|
G|--2--2------3-3-7-7-2--2------3-3-7-7--|
D|--2--2--2-2-3-3-5-5-2--2--2-2-3-3-5-5--|
 |     .  ...            .  ...          |
D|---------------------------------------|
A|--7~----------------7~--------5~--/13~-|
F|---------------------------------------| G2 w/wah
C|---------------------------------------|
G|---------------------------------------|
D|---------------------------------------|

D|---------------------------------------|
A|---------------------------------------|
F|---------------------------------------| G1
C|--4---------5-5-9-9-4---------5-5-9-9--|
G|--2--2------3-3-7-7-2--2------3-3-7-7--|
D|--2--2--2-2-3-3-5-5-2--2--2-2-3-3-5-5--|
 |     .  ...            .  ...          |
D|---------------------------------------|
A|--12~----------/20-19~-----------------|
F|---------------------------------------| G2 w/wah
C|---------------------------------------|
G|---------------------------------------|
D|---------------------------------------|


RIFF B2 -2x (0:48 - 1:11)
D|---------------------------------------|
A|---------------------------------------|
F|---------------------------------------| G3
C|-/4~---7-5----------4~----7-5----------|
G|-----------7~-----7-----------7~----7--|
D|---------------------------------------|
 |                                       |
D|---------------------------------------|
A|--7~----------------7~--------5~--/13~-|
F|---------------------------------------| G2 w/wah
C|---------------------------------------|
G|---------------------------------------|
D|---------------------------------------|
 |                                       |
D|---------------------------------------|
A|---------------------------------------|
F|---------------------------------------| G1
C|--4---------5-5-9-9-4---------5-5-9-9--|
G|--2--2------3-3-7-7-2--2------3-3-7-7--|
D|--2--2--2-2-3-3-5-5-2--2--2-2-3-3-5-5--|
       .  ...            .  ...

D|---------------------------------------|
A|---------------------------------------|
F|---------------------------------------| G3
C|-/4~----7-5--------/9~---9-9-1010-7-7--|
G|------------7~----7--------------------|
D|---------------------------------------|
 |                                       |
D|---------------------------------------|
A|--12~----------/20-19~-----------------|
F|---------------------------------------| G2 w/wah
C|---------------------------------------|
G|---------------------------------------|
D|---------------------------------------|
 |                                       |
D|---------------------------------------|
A|---------------------------------------|
F|---------------------------------------| G1
C|--4---------5-5-9-9-4---------5-5-9-9--|
G|--2--2------3-3-7-7-2--2------3-3-7-7--|
D|--2--2--2-2-3-3-5-5-2--2--2-2-3-3-5-5--|
       .  ...            .  ...


You can play the rythm with 2 gtrs like this:
	D|---------------------------------------|
	A|---------------------------------------|
	F|---------------------------------------| G1
	C|--4---------5-5-9-9-4---------5-5-9-9--|
	G|--2--2------3-3-7-7-2--2------3-3-7-7--|
	D|--2--2--2-2-3-3-----2--2--2-2-3-3------|
	 |     .  ...            .  ...          |
	D|---------------------------------------|
	A|---------------------------------------|
	F|---------------------------------------| G4
	C|--4---------5-5-----4---------5-5------|
	G|--2--2------3-3-7-7-2--2------3-3-7-7--|
	D|--2--2--2-2-3-3-5-5-2--2--2-2-3-3-5-5--|
	       .  ...            .  ...


RIFF C1 (1:12 - 1:18)
D|-----------------------------|
A|-----------------------------|
F|-----------------------------|
C|--4----4----7-7--3----3------|
G|--2----2----5-5--1----1------|
D|--2----2----5-5--1----1------|
         x              x

RIFF D1 (1:19-1:20)
D|---------------|
A|---------------|
F|---------------|
C|----------2----|
G|------2-4---3--|
D|--2-4----------|
[ Tab from: http://www.guitartabs.cc/tabs/t/thyrfing/vansinnesvisan_tab.html ]
RIFF D2 (1:20 - 1:36)
D|------------------------------------------------|
A|------------------------------------------------|
F|------------------------------------------------|
C|--------------------7----------------------3----|
G|--------------------5------------------3-5---5--|
D|--2-2-2-2-2-2-2-2-2-5--2-2-2-2-2-2-3-5----------|
    .................    ...........
D|------------------------------------------------|
A|------------------------------------------------|
F|------------------------------------------------|
C|--------------------5----------------------2----|
G|--------------------3------------------2-4---4--|
D|--1-1-1-1-1-1-1-1-1-3--1-1-1-1-1-1-2-4----------|
    .................    ...........
D|------------------------------------------------|
A|------------------------------------------------|
F|------------------------------------------------|
C|--------------------7----------------------3----|
G|--------------------5------------------3-5---5--|
D|--2-2-2-2-2-2-2-2-2-5--2-2-2-2-2-2-3-5----------|
    .................    ...........
D|--------------------------------------------------|
A|--------------------------------------------------|
F|--------------------------------------------------| G2
C|--------------------5----------------------2------|
G|--------------------3------------------2-4---4-3~-|
D|--1-1-1-1-1-1-1-1-1-3--1-1-1-1-1-1-2-4------------|
 |  .................    ...........                |
D|--------------------------------------------------|
A|--------------------------------------------------|
F|--------------------------------------------------| G1
C|--------------------5----------------------2---5--|
G|--------------------3------------------2-4---4-3--|
D|--1-1-1-1-1-1-1-1-1-3--1-1-1-1-1-1-2-4---------3--|
    .................    ...........

RIFF C2 (1:36-1:51)
D|--------------------------------------------|
A|--------------------------------------------|
F|--------------------------------------------|
C|--(5)----4----4----4----7-7--3----3----3----|
G|--(3)----2----2----2----5-5--1----1----1----|
D|--(3)----2----2----2----5-5--1----1----1----|
           x    x    x         x    x    x
D|--------------------------------------------|
A|--------------------------------------------|
F|--------------------------------------------|
C|--5-5--4----4----4----7-7--3----3----3------|
G|--5-3--2----2----2----5-5--1----1----1------|
D|--3-3--2----2----2----5-5--1----1----1----0-|
         x    x    x         x    x    x    .

RIFF E (1:52 - 2:14) - 2x - heavy palm mute strings
D|----------------------------------------------|
A|----------------------------------------------|
F|----------------------------------------------|
C|---------------------------------------3------|
G|--5-5-4-4--2-2-5-5-4-4-1-1-2-2-----3-5---5-4--|
D|--5-5-4-4--2-2-5-5-4-4-1-1-2-2-3-5------------|
    .......  ...................

D|----------------------------------------------|
A|----------------------------------------------|
F|----------------------------------------------|
C|---------------------------------------2------|
G|--4-4-3-3--1-1-4-4-3-3-0-0-1-1-----2-4---4-3--|
D|--4-4-3-3--1-1-4-4-3-3-0-0-1-1-2-4------------|
    .......  ...................

RIFF D2 - 2x (2:14 - 2:27)
RIFF C2 (2:27 - 2:44) let ring the chords on 2nd half

RIFF F (muddy guitar repeats this about 2x) then repeat 4x (2:45 - 3:23)
D|-------------------------------------------------------------|
A|-------------------------------------------------------------|
F|-------------------------------------------------------------|
C|-------------------------------------------------------------|
G|-------------------------------------------------------------|
D|--777777777777777777-8888-5555-666666666666666666-6666-5555--|

RIFF G1 (3:32 - 3:36)
D|---------------------------------------------------------------------|
A|---------------------------------------------------------------------|
F|---------------------------------------------------------------------|
C|---------------------------------------------------------------------|
G|--9999999-9999999-8888888888888888-9999999-9999999-8888888888888888--|
D|--7777777-7777777-6666666666666666-7777777-7777777-6666666666666666--|
          .       .                         .      .

RIFF G2 - tremolo pick everything - repeat 2x (3:36 - 4:02)
D|-----------------------------------------------------------------------|
A|-----------------------------------------------------------------------|
F|-----------------------------------------------------------------------| G2
C|-----------------------------------------------------------------------|
G|----------7"---910"-9"--7"-------------------7"--910"12"--10"--9"-109"-|
D|--7"--910"----------------109"--109"-7"--910"--------------------------|
 |                                                                       |
D|-----------------------------------------------------------------------|
A|-----------------------------------------------------------------------|
F|-----------------------------------------------------------------------| G1
C|-----------------------------------------------------------------------|
G|--9999999-10101010--1212121212121212-999999910101010-1212121212121212--|
D|--7777777-12121212--1010101010101010-777777712121212-1010101010101010--|
          .        .
    |______________|
	'only first time, then without stoping (.)

RIFF G3 - repeat till fade (4:02 - 4:43) *
D|-----------------------------------------------------------------------|
A|-----------------------------------------------------------------------|
F|-11"--9"11"12"14"-11"-------------11"--9"11"12"14"-11"-----------------| G3
C|-----------------------------------------------------------------------|
G|-----------------------------------------------------------------------|
D|-----------------------------------------------------------------------|
 |                                                                       |
D|-----------------------------------------------------------------------|
A|-----------------------------------------------------------------------|
F|-----------------------------------------------------------------------| G2
C|-----------------------------------------------------------------------|
G|----------7"---910"-9"--7"-------------------7"--910"12"--10"--9"-109"-|
D|--7"--910-----------------109"--109"-7"--910"--------------------------|
 |                                                                       |
D|-----------------------------------------------------------------------|
A|-----------------------------------------------------------------------|
F|-----------------------------------------------------------------------| G1
C|-----------------------------------------------------------------------|
G|--9999999910101010-1212121212121212--999999910101010-1212121212121212--|
D|--7777777712121212-1010101010101010--777777712121212-1010101010101010--|

* G3 is subtile, a bit buried in the mix
Comments