Thyrfing - Ur Askan Ett Rike Chords & Tabs

 

Ur Askan Ett Rike Chords & Tabs

Thyrfing Chords & Tabs

Version: 1 Type: Tab 0 ratings
1 star 2 stars 3 stars 4 stars 5 stars
comments

Ur Askan Ett Rike Tab

   
Band: Thyrfing
Album: Thyrfing
Song: Ur Askan Ett Rike
Tabbed by: Martijn Wietsma (Darkenelf)
Tab Date: 16-05-2003
Email: dalvanian@yahoo.com

Standard E tuning

riff A
|---------------------------------------------------------------|
|---------------------------------------------------------------|
|---------------------------------------------------------------|
|----------9--9-9-----------------------------------------------|
|-7--7-7---7--7-7---7--7-7--------------------------------------|
|-5--5-5------------5--5-5--(acoustic)--7-8-7-8p7---------------|

riff B
|---------------------------------------------------------------|
|---------------------------------------------------------------|
|---------------------------------------------------------------|
|----9----------------------------------------------------------|
|-7--7--7-------------------------------------------------------|
|-5-----5--7-8-7--8p7-------------------------------------------|
						(2x)
riff C
|---------------------------------------------------------------|
|---------------------------------------------------------------|
|---------------------------------------------------------------|
|------------------------------7-5------------------------------|
|---------1-3-1--------------------8-7--------------------------|
|-5--5-5---------3-----5--5-5-----------------------------------|
						(2x)
riff B
|---------------------------------------------------------------|
|---------------------------------------------------------------|
|---------------------------------------------------------------|
|----9----------------------------------------------------------|
|-7--7--7-------------------------------------------------------|
|-5-----5--7-8-7--8p7-------------------------------------------|
						(2x)
riff C
|---------------------------------------------------------------|
|---------------------------------------------------------------|
|---------------------------------------------------------------|
|------------------------------7-5------------------------------|
|---------1-3-1--------------------8-7--------------------------|
|-5--5-5---------3-----5--5-5-----------------------------------|
						(2x)
riff D
|---------------------------------------------------------------|
|---------------------------------------------------------------|
|---------------------------------------------------------------|
|-----------9--9-9-9--7--7-7-7-/-9-/-10-\-9-9-------------------|
|-7--7-7-7--7--7-7-7--5--5-5-5-/-7-/--8-\-7-7-------------------|
|-5--5-5-5------------------------------------------------------|

|---------------------------------------------------------------|
|---------------------------------------------------------------|
|---------------------------------------------------------------|
|-7--7-/-9-/-10-/-12--10--9---10-\-9--7-/-9---------------------|
|-5--5-/-7-/--8-/-10---8--7----8-\-7--5-/-7---------------------|
|---------------------------------------------------------------|
						(2x)
riff E
|---------------------------------------------------------------|
|---------------------------------------------------------------|
|---------------------------------------------------------------|
|---------------------------------------------------------------|
|-77777777--5/7--77777777--5/7--77777777--5/7--77777777--5/-----|
|-55555555--3/5--55555555--3/5--55555555--3/5--55555555--3/-----|
  xxxxxxxx       xxxxxxxx       xxxxxxxx       xxxxxxxx
[ Tab from: http://www.guitartabs.cc/tabs/t/thyrfing/ur_askan_ett_rike_tab.html ]
riff D
|---------------------------------------------------------------|
|---------------------------------------------------------------|
|---------------------------------------------------------------|
|-----------9--9-9-9--7--7-7-7-/-9-/-10-\-9-9-------------------|
|-7--7-7-7--7--7-7-7--5--5-5-5-/-7-/--8-\-7-7-------------------|
|-5--5-5-5------------------------------------------------------|

|---------------------------------------------------------------|
|---------------------------------------------------------------|
|---------------------------------------------------------------|
|-7--7-/-9-/-10-/-12--10--9---10-\-9--7-/-9---------------------|
|-5--5-/-7-/--8-/-10---8--7----8-\-7--5-/-7---------------------|
|---------------------------------------------------------------|
						(2x)
riff F
|---------------------------------------------------------------|
|---------------------------------------------------------------|
|---------------------------------------------------------------|
|-----9---------------------------------------------------------|
|-7---7---6---7-------------------------------------------------|
|-5-------4---5-------------------------------------------------|
						(4x)
riff G (fast)
|---------------------------------------------------------------|
|---------------------------------------------------------------|
|---------------------------------------------------------------|
|---------5-----------------5-----------------------------------|
|---7-8-7---8-7-5-----7-8-7---8-7-------------------------------|
|-5-----------------5-------------------------------------------|

riff H
|---------------------------------------------------------------|
|---------------------------------------------------------------|
|---------------------------------------------------------------|
|---------------------------------------------------------------|
|-7--777--10-9---7--777--10-9---7--777--10-9---6~---------------|
|-5--555---8-7---5--555---8-7---5--555---8-7---4~---------------|
						(2x)
riff I
|---------------------------------------------------------------|
|---------------------------------------------------------------|
|---------------------------------------------------------------|
|---------------------------------------------------------------|
|-5--555---10--10-10-10---7--77777777---------------------------|
|-3--333----8---8--8--8---5--55555555---------------------------|
                             xxxxxxxx		(2x)
riff H
|---------------------------------------------------------------|
|---------------------------------------------------------------|
|---------------------------------------------------------------|
|---------------------------------------------------------------|
|-7--777--10-9---7--777--10-9---7--777--10-9---6~---------------|
|-5--555---8-7---5--555---8-7---5--555---8-7---4~---------------|
						(2x)
riff I
|---------------------------------------------------------------|
|---------------------------------------------------------------|
|---------------------------------------------------------------|
|---------------------------------------------------------------|
|-5--555---10--10-10-10---7--77777777---------------------------|
|-3--333----8---8--8--8---5--55555555---------------------------|
                             xxxxxxxx		(2x)
riff J
|---------------------------------------------------------------|
|---------------------------------------------------------------|
|---------------------------------------------------------------|
|---------------------------------------------------------------|
|-5--555--10\5--7--77777777-------------------------------------|
|-3--333---8\3--5--55555555-------------------------------------|
		   xxxxxxxx			(4x)
Comments