Thyrfing - Set Sail To Plunder Chords & Tabs

 

Set Sail To Plunder Chords & Tabs

Thyrfing Chords & Tabs

Version: 1 Type: Tab 0 ratings
1 star 2 stars 3 stars 4 stars 5 stars
comments

Set Sail To Plunder Tab

   
Band: Thyrfing
Album: Thyrfing
Song: Set Sail To Plunder
Tabbed by: Martijn Wietsma
Email: dalvanian@yahoo.com
Date: 08-03-2003

Standard E Tuning

riff a (keyboard intro)
|-4-0-2-4---4-0-2------4-0-2-4---4-0-2----------------------|
|-----------------2--------------------2--------------------|
|-----------------------------------------------------------|
|-----------------------------------------------6------6----|
|-----------------------------------------------4-4444-4----|
|-----------------------------------------------------------|
			                          ....
riff b
|-----------------------------------------------------------|
|-----------------------------------------------------------|
|--------2-222----------------------------------------------|
|-6-666--2-222--4-444--6--6\4-------------------------------|
|-4-444--0-000--2-222--4--4\2-------------------------------|
|-----------------------------------------------------------|
    ...    ...    ...
|-----------------------------------------------------------|
|-----------------------------------------------------------|
|--------2-222----------------------------------------------|
|-6-666--2-222--4-444--6------------------------------------|
|-4-444--0-000--2-222--4------------------------------------|
|-----------------------------------------------------------|
    ...    ...    ...

riff c
|-----------------------------------------------------------|
|-----------------------------------------------------------|
|-----------------------------------------------------------|
|-4/6-6-6---4/6-6-6---4/6-6-6---6\4-4-4---------------------|
|-2/4-4-4---2/4-4-4---2/4-4-4---4\2-2-2---------------------|
|-----------------------------------------------------------|
					(2x)
riff d
|-----------------------------------------------------------|
|-----------------------------------------------------------|
|-----------------------------------------------------------|
|-----------------------------------------------------------|
|-2-2-5--2-2-5--2-2--2-5-7----------------------------------|
|-0-0-3--0-0-3--0-0--0-3-5----------------------------------|
					(4x)
riff c
|-----------------------------------------------------------|
|-----------------------------------------------------------|
|-----------------------------------------------------------|
|-4/6-6-6---4/6-6-6---4/6-6-6---6\4-4-4---------------------|
|-2/4-4-4---2/4-4-4---2/4-4-4---4\2-2-2---------------------|
|-----------------------------------------------------------|
					(2x)
riff d
|-----------------------------------------------------------|
|-----------------------------------------------------------|
|-----------------------------------------------------------|
|-----------------------------------------------------------|
|-2-2-5--2-2-5--2-2--2-5-7----------------------------------|
|-0-0-3--0-0-3--0-0--0-3-5----------------------------------|
					(4x)
riff e
|-----------------------------------------------------------|
|-----------------------------------------------------------|
|-----------------------------------------------------------|
|-5----5---6----6---5----5---3----3-------------------------|
|-3-33-3---4-44-4---3-33-3---1-11-1-------------------------|
|-----------------------------------------------------------|
    ..       ..       ..       ..

|-----------------------------------------------------------|
|-----------------------------------------------------------|
|-----------------------------------------------------------|
|-5----5---6----6---5----5----------------------------------|
|-3-33-3---4-44-4---3-33-3----------------------------------|
|-----------------------------------------------------------|
    ..       ..       ..

riff f
|-----------------------------------------------------------|
|-----------------------------------------------------------|
|-----------------------------------------------------------|
|-9--10--9--7-----9--10--9--7-------------------------------|
|-7---8--7--5-----7---8--7--5-------------------------------|
|-----------------------------------------------------------|
[ Tab from: http://www.guitartabs.cc/tabs/t/thyrfing/set_sail_to_plunder_tab.html ]
|-----------------------------------------------------------|
|-----------------------------------------------------------|
|-----------------------------------------------------------|
|-5--6--5--3------5--6--5--3--------------------------------|
|-3--4--3--1------3--4--3--1--------------------------------|
|-----------------------------------------------------------|

|-----------------------------------------------------------|
|-----------------------------------------------------------|
|-----------------------------------------------------------|
|-9--10--9--7-----9--10--9--7-------------------------------|
|-7---8--7--5-----7---8--7--5-------------------------------|
|-----------------------------------------------------------|

riff e
|-----------------------------------------------------------|
|-----------------------------------------------------------|
|-----------------------------------------------------------|
|-5----5---6----6---5----5---3----3-------------------------|
|-3-33-3---4-44-4---3-33-3---1-11-1-------------------------|
|-----------------------------------------------------------|
    ..       ..       ..       ..

|-----------------------------------------------------------|
|-----------------------------------------------------------|
|-----------------------------------------------------------|
|-5----5---6----6---5----5---5-3----------------------------|
|-3-33-3---4-44-4---3-33-3-------6-5------------------------|
|-----------------------------------------------------------|
    ..       ..       ..

riff g
|-----------------------------------------------------------|
|-----------------------------------------------------------|
|-----------4-----------------------------------------------|
|--------5--2--5--7-----------------------------------------|
|-2------3-----3--5-----------------------------------------|
|-0--00-----------------------------------------------------|
     ..

riff h
|-----------------------------------------------------------|
|-----------------------------------------------------------|
|----------------------------------4------------------------|
|---------4---4---------4-4-----5--2--5--7------------------|
|-2-------2---2-2-------2-2-----3-----3--5------------------|
|-0--000--------0--000--------------------------------------|
     ...           ...			(3x)

riff i
|-----------------------------------------------------------|
|-----------------------------------------------------------|
|----4-----4-----4-----4-----4-----4---4-2------------------|
|----2-----2-----2-----2-----2-----2-------5-4--------------|
|-----------------------------------------------------------|
|-0-----0-----0-----0-----0-----0---------------------------|
  .     .     .     .     .     .

riff c
|-----------------------------------------------------------|
|-----------------------------------------------------------|
|-----------------------------------------------------------|
|-4/6-6-6---4/6-6-6---4/6-6-6---6\4-4-4---------------------|
|-2/4-4-4---2/4-4-4---2/4-4-4---4\2-2-2---------------------|
|-----------------------------------------------------------|
					(2x)
riff d
|-----------------------------------------------------------|
|-----------------------------------------------------------|
|-----------------------------------------------------------|
|-----------------------------------------------------------|
|-2-2-5--2-2-5--2-2--2-5-7----------------------------------|
|-0-0-3--0-0-3--0-0--0-3-5----------------------------------|
					(4x)
riff c
|-----------------------------------------------------------|
|-----------------------------------------------------------|
|-----------------------------------------------------------|
|-4/6-6-6---4/6-6-6---4/6-6-6---6\4-4-4---------------------|
|-2/4-4-4---2/4-4-4---2/4-4-4---4\2-2-2---------------------|
|-----------------------------------------------------------|
					(2x)
riff j
|-----------------------------------------------------------|
|-----------------------------------------------------------|
|-----------------------------------------------------------|
|-----------------------------------------------------------|
|-----------------5--7--------------------------------------|
|-0-0000--0-0000--3--5--------------------------------------|
					(8x)
riff k (ending)
|-----------------------------------------------------------|
|-----------------------------------------------------------|
|-----------------------------------------------------------|
|-----------------------------------------------------------|
|-555--777--2-----------------------------------------------|
|-333--555--0-----------------------------------------------|
Comments