Thyrfing - Raven Eyes Chords & Tabs

 

Raven Eyes Chords & Tabs

Thyrfing Chords & Tabs

Version: 1 Type: Tab 0 ratings
1 star 2 stars 3 stars 4 stars 5 stars
comments

Raven Eyes Tab

   
Band: Thyrfing
Album: Thyrfing
Song: Raven Eyes
Tabbed by: Martijn Wietsma
Email: northerland@yahoo.co.uk
Date: 08-03-2003
Redo of whole tab: 01-04-2004

Standard E Tuning

riff a
|------------------------------------------------------|
|------------------------------------------------------|
|-9-----5--7----9-----5--7-----------------------------|
|-7--9--3--5----7--9--3--5-----------------------------|
|----7-------------7-----------------------------------|
|------------------------------------------------------|
                                                (1x)

riff b (0:15)
|------------------------------------------------------|
|------------------------------------------------------|
|-9-999---------5-555--7-777---------------------------|
|-7-777--9-999--3-333--5-555---------------------------|
|--------7-777-----------------------------------------|
|------------------------------------------------------|
                                                (3x)

|------------------------------------------------------|
|------------------------------------------------------|
|-9-999---------7--------------------------------------|
|-7-777--7-777--5--10-9-9------------------------------|
|--------5-555------8-7-7------------------------------|
|------------------------------------------------------|
                                                (1x)
riff c (0:30)
|------------------------------------------------------|
|------------------------------------------------------|
|------------------------------------------------------|
|------------------------------------------------------|
|-7--77-77-77------------------------------------------|
|-5--55-55-55------------------------------------------|
     .  .  .                                        (1x)

riff d (0:32)
|------------------------------------------------------|
|------------------------------------------------------|
|------------------------------------------------------|
|------------------------------------------------------|
|-7--77-77-77\5---7--77-77-77---7--77-77-77\5----------|
|-5--55-55-55\3---5--55-55-55---5--55-55-55\3----------|
     .  .  .         .  .  .       .  .  .        (1x)
[ Tab from: http://www.guitartabs.cc/tabs/t/thyrfing/raven_eyes_tab.html ]
(0:37)
repeat riff B 1x

(0:50)
repeat riff C 1x
repeat riff D 1x

riff f (0:57)
|------------------------------------------------------|
|------------------------------------------------------|
|-9--8----------9--8-----------9--8----------9--8------|
|-7--6--9--11---7--6--9---11---7--6--9--11---7--6--9--8|
|-------7---9---------7----9---------7---9---------8--6|
|------------------------------------------------------|
                                                (1x)
(1:10)
repeat riff F 3x

riff g (2:05)
|------------------------------------------------------|
|------------------------------------------------------|
|------------------------------------------------------|
|------------------------------------------------------|
|-7--7-7---7/10\8--8\7--5/7----7--7-7---7/10\8--8\7--5-|
|-5--5-5---5/-8\6--6\5--3/5----5--5-5---5/-8\6--6\5--3-|

|------------------------------------------------------|
|------------------------------------------------------|
|------------------------------------------------------|
|-----------------------9-999--9/10-9-9-7--------------|
|-7--7-7---7--7--5/7----7-777--7/-8-7-7-5--------------|
|-5--5-5---5--5--3/5-----------------------------------|
                                                (1x)

riff h (2:18)
|------------------------------------------------------|
|------------------------------------------------------|
|------------------------------------------------------|
|------------------------------------------------------|
|-7-77-77-77-5/7---7-77-7-66---------------------------|
|-5-55-55-55-3/5---5-55-5-44---------------------------|
                                                (1x)

|------------------------------------------------------|
|------------------------------------------------------|
|------------------------------------------------------|
|------------------9-999--9/10-9-9-7-------------------|
|-7-77-77-77-5/7---7-777--7/-8-7-7-5-------------------|
|-5-55-55-55-3/5---------------------------------------|
                                                (1x)
repeat riff H 3x

repeat riff G 2x
repeat riff B 2x
repeat riff C 1x (3:10)
repeat riff D 1x
repeat riff B 1x

(end of song)
Comments