Thyrfing - Intro Chords & Tabs

 

Intro Chords & Tabs

Thyrfing Chords & Tabs

Version: 1 Type: Tab 0 ratings
1 star 2 stars 3 stars 4 stars 5 stars
comments

Intro Tab

Band: Thyrfing
Album: Hednaland
Song: Intro
Tabbed by: Martijn Wietsma (Darkenelf)
Tab Date: 29-07-2003
Email: dalvanian@yahoo.com

For more tabs from me,
goto: http://www.doomish.com/go/?r=Darkenelf

Standard E Tuning

riff A (chords)
|-------------------------------------------------------|
|-------------------------------------------------------|
|-------------------------------------------------------|
|-2---2---2---2---2---2---3---3---3---2-----------------|
|-2---2---2---2---2---2---3---3---3---2-----------------|
|-0---0---0---0---0---0---1---1---1---0-----------------|

riff B (lead)
|-------------------------------------------------------|
|-------------------------------------------------------|
|-9-7-------9-7------10-9---------10-9------------------|
|------5h7------5h7--------10h12-------5h7--------------|
|-------------------------------------------------------|
|-------------------------------------------------------|
[ Tab from: http://www.guitartabs.cc/tabs/t/thyrfing/intro_tab.html ]
riff C (lead) (play it with riff D together)
|-------------------------------------------------------|
|-------------------------------------------------------|
|-9-7------9-7------7-9-10--9--------10-9---------------|
|-----5h7------5h7------------10h12-------5h7-----------|
|-------------------------------------------------------|
|-------------------------------------------------------|

riff D (chords) (ending riff)
|-------------------------------------------------------|
|-------------------------------------------------------|
|-------------------------------------------------------|
|-2-----2-2---2-----2-2---2-----2-2---2-----2-2---------|
|-2-----2-2---2-----2-2---2-----2-2---2-----2-2---------|
|-0-0-0-0-0---0-0-0-0-0---0-0-0-0-0---0-0-0-0-0---------|
    x x         x x         x x         x x
						(2x)
|-------------------------------------------------------|
|-------------------------------------------------------|
|-------------------------------------------------------|
|-3-----3-3---3-----3-3--3-----3-3-----------2----------|
|-3-----3-3---3-----3-3--3-----3-3---(2x)----2----------|
|-1-1-1-1-1---1-1-1-1-1--1-1-1-1-1-----------0----------|
    x x         x x        x x
Comments