Thyrfing - Eldfrd Chords & Tabs

 

Eldfrd Chords & Tabs

Thyrfing Chords & Tabs

Version: 1 Type: Tab 0 ratings
1 star 2 stars 3 stars 4 stars 5 stars
comments

Eldfrd Tab

   
                                        ELFDÄRD
                               (As recorded by Thyrfing
                              from the 2000 album Urkraft)
                             VERSION 1.0 - October 19th 2002


Transcribed by Cristi Rachitovan
mail: decietful@hotmail.com
IRC:  undernet's #metal as "Stromblad"

h = hammer-on
p = pull-off
/ = slide

Tune to 1 whole step down (DGCFAD)
I did not waste my time noting the timing.


Part A (0:00 - 0:21)

D|----------5-3---12-10-8-5---5-5-3-----------------------|
A|----3-5-6-----6-------------------6-5--3--1--1/3--3--3--|
F|--------------------------------------------------------|
C|----0-----3-----10------3-----3---------------0------0--|
G|------------------------------------3-------------------|
D|--------------------------------------------------------|

D|----------5-3---12-10-8-5---5-5-3-----------------------|
A|--3-3-5-6-----6-------------------6-5--3--1--1/3--3--3--|
F|--------------------------------------------------------|
C|----0-----3-----10------3-----3---------------0------0--|
G|------------------------------------3-------------------|
D|--------------------------------------------------------|

[ Tab from: http://www.guitartabs.cc/tabs/t/thyrfing/eldfrd_tab.html ]
Part B x2 (0:21 - 0:44)

D|----6-5h6p5p3-5-3h5\1-3-1----------10-8-6-5-3-1-2/3-3-3-|
A|--3------------------------4-3---3----------------------|
F|--------------------------------------------------------|
C|--0-----------3-------1------0------8-----3------0----5-|
G|--------------------------------------------------------|
D|--------------------------------------------------------|


Part C x2 (0:44 - 1:06)

D|-----15-13-11-10---10-10-8----------8-6-------------------|
A|---------------------------1110--10-----9-8-7-8-10-8-5-7--|
F|--12------------------------------------------------------|
C|-----13--------8-------8------------6------------------0--|
G|------------------------------8-----------6------8--------|
D|----------------------------------------------------------|
* slide down the last note (7) on repeat

Part B (1:06 - 1:19)

D|----6-5h6p5p3-5-3h5\1-3-1---------10-8-6-5-3-1-2/3-3h5-3-|
A|--3-----------------------4-3---3------------------------|
F|---------------------------------------------------------|
C|--0-----------3-------1-----0------8-----3------0------5-|
G|---------------------------------------------------------|
D|---------------------------------------------------------|
Comments