Thyrfing - Draugs Harg Chords & Tabs

 

Draugs Harg Chords & Tabs

Thyrfing Chords & Tabs

Version: 1 Type: Tab 0 ratings
1 star 2 stars 3 stars 4 stars 5 stars
comments

Draugs Harg Tab

1) [intro] (0:08 - 0:11)
D|---------|-------------------------------------|
A|---------|-------------------------------------|
F|---------|-------------------------------9\----|
C|--2------|-2--2-2------------------------9\----|
G|--2------|-2--2-2------------------------7\----|
D|--0------|-0--0-0----0-3-2-0-3-2-0-3-2-0-------|
    <        .  ...    ...................

2) [verse1] (0:11 - 0:27)
D|-----------------------------------------------------------|
A|-----------------------------------------------------------|
F|-----------------------------------------------------------|
C|--9------9------9------9------4------4------9------9-------|
G|--7-7777-7-7777-7-7777-7-7777-2-2222-2-2222-7-7777-7-7777--|
D|-----------------------------------------------------------|
      ....   ....   ....   ....   ....   ....   ....   ....
D|-----------------------------------------------------------|
A|-----------------------------------------------------------|
F|-----------------------------------------------------------|
C|--9------9------9------9------5------5------5------5-------|
G|--7-7777-7-7777-7-7777-7-7777-3-3333-3-3333-3-3333-3-3333--|
D|-----------------------------------------------------------|
      ....   ....   ....   ....   ....   ....   ....   ....
D|-----------------------------------------------------------|
A|-----------------------------------------------------------|
F|-----------------------------------------------------------|
C|--9------9------9------9------4------4------9------9-------|
G|--7-7777-7-7777-7-7777-7-7777-2-2222-2-2222-7-7777-7-7777--|
D|-----------------------------------------------------------|
      ....   ....   ....   ....   ....   ....   ....   ....
D|---------------------------------------------------------|
A|---------------------------------------------------------|
F|---------------------------------------------------------|
C|--9------9------9------9------5------5------5-----5-4----|
G|--7-7777-7-7777-7-7777-7-7777-3-3333-3-3333-3-333-3-2-5--|
D|------------------------------------------------------3--|
      ....   ....   ....   ....   ....   ....   ...

3) [verse2] x2 (0:28 - 0:49)
D|------------------------------|-------------------------------|
A|------------------------------|-------------------------------|
F|------------------------------|-------------------------------|
C|----------22-22-----77----55--|----------22-22----------------|
G|--2-2-2-2-22-22---5-55--3-33--|--2-2-2-2-22-22----5-5-5-9\----|
D|--0-0-0-0---------------------|--0-0-0-0----------3-3-3-7\----|
    . . . .         .     .        . . . .          .
D|------------------------------|-------------------------------|
A|------------------------------|-------------------------------|
F|------------------------------|-------------------------------|
C|----------22-22-----77----55--|--444444---------------444444--|
G|--2-2-2-2-22-22---5-55--3-33--|--222222-555555-777777-222222--|
D|--0-0-0-0---------------------|---------333333-555555---------|
    . . . . .....   .     .        ..........................

2) [verse1]    (0:49 - 1:04)
3) [verse2] x2 (1:04 - 1:26)
[ Tab from: http://www.guitartabs.cc/tabs/t/thyrfing/draugs_harg_tab.html ]
4) [interlude] (1:26 - 2:03)
D|-------------------------------------------------------------------|
A|-------------------------------------------------------------------|
F|-------------------------------------------------------------------|
C|-------------------------------------------------------------------|
G|----------------------------------6-5-6-8-6-5---5-9-6-5---5-6-8-9--|
D|--6-5-3-6-5-3-6-3-6-5-3-6-5-3-6-3-------------8---------8----------|
 |   .............................................................   |
D|-------------------------------------------------------------------|
A|-------------------------------------------------------------------|
F|-------------------------------------------------------------------|
C|-------------------------------------------------------------------|
G|--5-----------------------5-5-5-5----------------------------------|
D|--3-----------------------3-3-3-3------------------------------12\-|
    .                       .......
then both guitars play this x6
D|-------------------------------------------------------------------|
A|-------------------------------------------------------------------|
F|-------------------------------------------------------------------|
C|-------------------------------------------------------------------|
G|----------------------------------6-5-6-8-6-5---5-9-6-5---5-6-8-9--|
D|--6-5-3-6-5-3-6-3-6-5-3-6-5-3-6-3-------------8---------8----------|
    .............................................................

5) [draugs harg part] (2:03 - 2:26)
D|---------------------------------------------------|
A|---------------------------------------------------|
F|---------------------------------------------------|
C|--------------------------------------------7------|
G|--5--5-5-5--5-5-5--5-5-5--5-5-5--5-5-5--5-5-5--7---|
D|--3--3-3-3--3-3-3--3-3-3--3-3-3--3-3-3--3-3----5---|
    .  .....  .....  .....  .....  .....  ...
D|---------------------------------------------------|
A|---------------------------------------------------|
F|---------------------------------------------------|
C|--------------------------------------------7------|
G|--5--5-5-5--5-5-5--5-5-5--5-5-5--5-5-5--5-5-5--9---|
D|--3--3-3-3--3-3-3--3-3-3--3-3-3--3-3-3--3-3----7---|
    .  .....  .....  .....  .....  .....  ...
D|---------------------------------------------------|
A|---------------------------------------------------|
F|---------------------------------------------------|
C|--------------------------------------------7------|
G|--5--5-5-5--5-5-5--5-5-5--5-5-5--5-5-5--5-5-5--7---|
D|--3--3-3-3--3-3-3--3-3-3--3-3-3--3-3-3--3-3----5---|
    .  .....  .....  .....  .....  .....  ...
D|-----------------------------------------------------------|
A|-----------------------------------------------------------|
F|-----------------------------------------------------------|
C|--------------------------------------------7--------------|
G|--5--5-5-5--5-5-5--5-5-5--5-5-5--5-5-5--5-5-5--9-10-12-14--|
D|--3--3-3-3--3-3-3--3-3-3--3-3-3--3-3-3--3-3----7--8-10-12--|
    .  .....  .....  .....  .....  .....  ...

1) [intro]     (2:26 - 2:31)
2) [verse1]    (2:31 - 2:46)
3) [verse2] x2 (2:46 - 3:07)
2) [verse1]    (3:07 - 3:23)
3) [verse2] x2 (3:23 - 3:59)
The song ends with a E5 chord (in this tuning, D5).
Comments