Thyrfing - Celebration Of Our Victory Chords & Tabs

 

Celebration Of Our Victory Chords & Tabs

Thyrfing Chords & Tabs

Version: 1 Type: Tab 0 ratings
1 star 2 stars 3 stars 4 stars 5 stars
comments

Celebration Of Our Victory Tab

   
Band: Thyrfing
Album: Thyrfing
Song: Celebration of Our Victory
Tabbed by: Martijn Wietsma (Darkenelf)
Tab-date: 29-04-2003
Email: dalvanian@yahoo.com

Standard E Tuning

riff A: (acoustic)
|---------------------------------------------------------------------|
|---------------------------------------------------------------------|
|---------------------------------------------------------------------|
|---------------------------------------------------------------------|
|-----------------------5--------------------------------22222222-----|
|-0-0h5-5h7h8-----0-0h5---8p7-----0-0h5-5h7h8-5-33333333--------------|

riff B: (acoustic)
|---------------------------------------------------------------------|
|---------------------------------------------------------------------|
|---------------------------------------------------------------------|
|--------------------------------------------------------44444444-----|
|-----------------------5-----------------------55555553-22222222-----|
|-0-0h5-5h7h8-----0-0h5---8p7-----0-0h5-5h7h8-5-33333333--------------|
					       [Distortion.......]

riff C: (distortion)
|---------------------------------------------------------------------|
|---------------------------------------------------------------------|
|---------------------------------------------------------------------|
|--------------------------------------------------------44444444-----|
|-----------------------5-----------------------55555553-22222222-----|
|-0-0h5-5h7h8-----0-0h5---8p7-----0-0h5-5h7h8-5-33333333--------------|
						(4x)

riff D:
|---------------------------------------------------------------------|
|---------------------------------------------------------------------|
|---------------------------9-9--11--11-11-11--9----------------------|
|-9-9--11-11--12--12-12-12--7-7---9---9--9--9--7-12-11--12-11-7-------|
|-7-7---9--9--10--10-10-10-----------------------10--9--10--9-5-------|
|---------------------------------------------------------------------|
						(4x)
[ Tab from: http://www.guitartabs.cc/tabs/t/thyrfing/celebration_of_our_victory_tab.html ]
riff E:
|------------------------------------------------------------|
|------------------------------------------------------------|
|------------------------------------------------------------|
|-2-2------------------2-2------------7----------------------|
|-2-2--2h3p2p0-3p2-----2-2--2h3p2p0-/-5----------------------|
|-0-0------------------0-0-----------------------------------|
						(4x)
riff C: (distortion)
|---------------------------------------------------------------------|
|---------------------------------------------------------------------|
|---------------------------------------------------------------------|
|--------------------------------------------------------44444444-----|
|-----------------------5-----------------------55555553-22222222-----|
|-0-0h5-5h7h8-----0-0h5---8p7-----0-0h5-5h7h8-5-33333333--------------|
						(4x)
riff C: (distortion-fast)
|---------------------------------------------------------------------|
|---------------------------------------------------------------------|
|---------------------------------------------------------------------|
|--------------------------------------------------------44444444-----|
|-----------------------5-----------------------55555553-22222222-----|
|-0-0h5-5h7h8-----0-0h5---8p7-----0-0h5-5h7h8-5-33333333--------------|

riff F:						(4x)
|------------------------------------------------------------|
|------------------------------------------------------------|
|-------------------------------------4----------------------|
|-2-2--5-4---2-2--5-4---2-2--5-4---7--2----------------------|
|-2-2--3-2---2-2--3-2---2-2--3-2---5-------------------------|
|-0-0--------0-0--------0-0----------------------------------|
						(8x)
riff D: (till end of song)
|---------------------------------------------------------------------|
|---------------------------------------------------------------------|
|---------------------------9-9--11--11-11-11--9----------------------|
|-9-9--11-11--12--12-12-12--7-7---9---9--9--9--7-12-11--12-11-7-------|
|-7-7---9--9--10--10-10-10-----------------------10--9--10--9-5-------|
|---------------------------------------------------------------------|
						(4x)
Comments