Thyrfing - A Moment In Valhalla Chords & Tabs

 

A Moment In Valhalla Chords & Tabs

Thyrfing Chords & Tabs

Version: 1 Type: Tab 0 ratings
1 star 2 stars 3 stars 4 stars 5 stars
comments

A Moment In Valhalla Tab

                     Thyrfing - A Moment In Valhalla
                        From the Album Valdr Galga
                    Copyright 1999 Hammerheart Records
                        Version 1.0 - April 2001

Transcribed by: Corpse

For Questions, Comments, Newest Version, or Corrections contact
 Corps| at meszigabor@intermail.hu

Check Out Death Warp, With More Transcriptions On It:
 http://www.sorrowsend.com/DeathWarp/

..  - palm mute          /  - slide up to
 \  - slide down to      ~  - vibrato
 h  - hammer on          b  - bend
 p  - pull off            Suffixes for bend
                          ph - pinch harmonic
                           f - full bend    h - half bend
*  - see comment           r - release      t - tap bend
X  - percussion mute       ~ - vibrato bend
@  - slight palm mute     () - ghost note, sustained note

Normal Tuning

Riff 1 x 4
|--------------------------------------------------|
|--------------------------------------------------|
|--------------------------------------------------|
|--------------------------------------------------|
|--7-----------7-----------7-----------7-----------|
|--5-555-5-5-5-5-555-5-5-5-5-555-5-5-5-5-555-5-5-5-|
       ... . . .   ... . . .   ... . . .   ... . . .

Riff 2 x 6
|----------------------------------------------------------------|
|----------------------------------------------------------------|
|--------12\9-9-------7/9-9-------9\7-7-------7/9-9--------------|
|---------------------------------------------------10--7--5--/9-|
|--0-0-0--------0-0-0-------0-0-0-------0-0-0--------8--5--3--/7-|
|----------------------------------------------------------------|
     . . .        . . .       . . .       . . .

Bass Riff
|------------------------------------------------|
|------------------------------------------------|
|--7\5-5-5\2-2-2/3-3-3\2-2-------------------12\-|
|--------------------------3/5-5-5\3-3-3/5-5-----|
* Guitar slides down                            *

Riff 2 x 4

Riff 3 x 4
|---------------------------|
|---------------------------|
|---------------------------|
|--2-2-2-2-2-2-5-5-5-7-7-7--|
|--0-0-0-0-0-0-3-3-3-5-5-5--|
|---------------------------|

Riff 4 x 1
|---------------------------------------|
|---------------------------------------|
|---------------------------------------|
|--7----7-9-10--9-7-9-7----7------------|
|----10-----------------10---10-7-------|
|----------------------------------10-7-|
Play Riff 4 when Riff 3 starts for the 3rd time

Riff 5 x 2
|-------------------------------------------------------------------|
|-------------------------------------------------------------------|
|----------------------------------------------4-5--5-5-4---4-------|
|------5-777--7-5---5--------------------5-777------------7---7-5-7-|
|----7------------7---7-5-7-8-5--------7----------------------------|
|--5----------------------------8--7-5------------------------------|

Riff 6 x 1
|------------------------------------------------------------------|
|------------------------------------------------------------------|
|------------------------------------------------------------------|
|--2-2-2-4-4-4-5-5-5-7-7-7-5\4--4-4-4-------4-4-4-2---5-777--5-----|
|--0-0-0-2-2-2-3-3-3-5-5-5-3\2--2-2-2-5-5-5-2-2-2-0-7--------3-5-7-|
|-------------------------------------3-3-3--------------------3-5-|
       . .   . .   . .   . .        . .   . .   . .

Riff 5 x 2

Riff 7 x 1
|---------------------------------------------------|
|---------------------------------------------------|
|---------------------------------------------------|
|---------------------------------------------------|
|--------7-----------7-----------7------------------|
|--5-5-5-5-5-5-5-5-5-5-5-5-5-5-5-5-5-5-5-5-5-5-5-5--|
     . . .   . . . . .   . . . . .   . . . . . . . .

Riff 2 x 4
Riff 3 x 4 Riff 4 x 1
Riff 5 x 2
[ Tab from: http://www.guitartabs.cc/tabs/t/thyrfing/a_moment_in_valhalla_tab.html ]
Riff 6b x 1
|-------------------------------------------------|
|-------------------------------------------------|
|-------------------------------------------------|
|--2-2-2-4-4-4-5-5-5-7-7-7-5\4--4-4-4-------4-4-4-|
|--0-0-0-2-2-2-3-3-3-5-5-5-3\2--2-2-2-5-5-5-2-2-2-|
|-------------------------------------3-3-3-------|
       . .   . .   . .   . .        . .   . .   . .

Keyboard Interlude

Riff 8 x 8
   1st time                                    1.2.3.4.   5.,7. 6.,8.
ending
|----------|-------------------------------|-----------|-----|-----|
|----------|-------------------------------|-----------|-----|-----|
|----------|-------------------------------|-----------|-----|-----|
|--2-(2)---|-2---------4/7--7\5--2---------|-----------|-----|-4---|
|--0-(0)-5-|-0-0-0-0-0-2/5--5\3--0-0-0-0-0-|-5---------|-2---|-2-5-|
|--------3-|-------------------------------|-3-3-3-3-3-|---3-|---3-|
           .     . . . .             . . . .     . . . .         . .
Riff 9 x 1
|------------------------------|
|------------------------------|
|------------------------------|
|--2-2-2-2-2-(2)---------------|
|--0-0-0-0-0-(0)--5-5-5-7-7-7--|
|-----------------3-3-3-5-5-5--|
     . . . .          . .   . .

Riff 10 x 4
|-------------------------------------------------------------------|
|-------------------------------------------------------------------|
|-------------------------------------------------------------------|
|------2-------2---------------5-------2-------2---------------2----|
|--0-000-000-000-00----3---3-333-330-000-000-000-00----5---0-000-00-|
|------------------1-111-11------------------------3-333-33---------|
     . ..  ... ..  ... ..  ... ..  ... ..  ... ..  ... ..  ... ..  ..

Riff 11 x 1 Tremolo picking
|-------------------------------------------------------|
|-------------------------------------------------------|
|--9-7----7-10-9-7-9-7------9-7------7----------------9-|
|7-----10--------------10-7-----10-9----109109797---7---|
|------------------------------------------------10-----|
|-------------------------------------------------------|

|-------------------------------------------|
|-------------------------------------------|
|-7----7-10-9-7-9-7------9-7------7---------|
|---10--------------10-7-----10-9----10-9---|
|-----------------------------------------7-|Play Riff 11 when Riff 10
|-----------------------------------------5-|starts for the 3rd time
                                            .

Riff 12 x 2
|---------------------------------------------------------|
|---------------------------------------------------------|
|---------------------------------------------------------|
|--7--7-7-7--7--7-7\3--3--3-3/10--10--10-10\7--7--7-7-7---|
|--5--5-5-5--5--5-5\1--1--1-1/8---8---8--8-\5--5--5-5-5---|
|---------------------------------------------------------|

|----------------------------|
|----------------------------|
|----------------------------|
|-7--7-7\5--5--5-5/7--7-7-5-7|
|-5--5-5\3--3--3-3/5--5-5-3-5|
|----------------------------|

Riff 13
   1.3.                                           2.
|----------------------------------------------|----------------------|
|----------------------------------------------|----------------------|
|----------------------------------------------|----------------------|
|----------------------------------------------|----------------------|
|--7--7-7-7-7-7--7-7\3--3--3-3/10--10--10-10\7-|-7--7-7-7-7-7--7-7\5--|
|--5--5-5-5-5-5--5-5\1--1--1-1/8---8---8--8-\5-|-5--5-5-5-5-5--5-5\3--|

                       4.
|-------------------|-------------------------------------------------|
|-------------------|-------------------------------------------------|
|-------------------|-------------------------------------------------|
|-------------------|-------------------------------------------------|
|-5--5-5/7--7-7-5-7-|-7--7-7-7-7-7--7-7\5--5--5--5--7--7--5--5--7-(7)-|
|-3--3-3/5--5-5-3-5-|-5--5-5-5-5-5--5-5\3--3--3--3--5--5--3--3--5-(5)-|

Check Out Death Warp, With More Transcriptions On It:
 http://www.sorrowsend.com/DeathWarp/
Comments