Thy Serpent - Chambers Of The Starwatcher Chords & Tabs

 

Chambers Of The Starwatcher Chords & Tabs

Thy Serpent Chords & Tabs

Version: 1 Type: Tab 0 ratings
1 star 2 stars 3 stars 4 stars 5 stars
comments

Chambers Of The Starwatcher Tab

Thy Serpent - 'Chambers of the Starwatcher'
From the album 'Christcrusher'
Transcribed by Heikki B. Huurinainen (moon_over_thee@hotmail.com)
All comments and corrections are welcome!

      h  - hammer-on
      p  - pull-off
      .. - palm mute
      /  - slide

Normal tuning (E)

Rhy fig.1  (00:00-00:16)
|------------------------------------------------------------------|
|------------------------------------------------------------------|
|------------------------------------------------------------------|   
|------------------666-666-444-444-----------------666-666-444-444-|
|--444-444-444-444-444-444-222-222-444-444-444-444-444-444-222-222-|
|--222-222-222-222-----------------222-222-222-222-----------------|

Rhy fig.1 x 3 (w/riff.1) (00:16-01:05)

Riff.1 x 2 
|------------------------------------------------------------------
|--------7-/10--9-----------------7-/10--9----------/10-9h10p9/7---
|-----6------------9-----7-----6------------9-----7----------------
|--7------------------9-----7------------------9-----7*------------
|------------------------------------------------------------------
|------------------------------------------------------------------
                      Riff xxx
 -------------------| |---------------------------|     
 --/10--9-----------| |---------------------------|     
 ----------9-----7--| |---------------------------|   
 -------------9-----| |--7-6h7p6/4--7--6----------|    
 -------------------| |-------------------7-----5-|
 -------------------| |----------------------7----|
[ Tab from: http://www.guitartabs.cc/tabs/t/thy_serpent/chambers_of_the_starwatcher_tab.html ]
On second repeat I keep hearing this note marked with *. There might be an 
another guitar playing something like Riff xxx at that point. Ain't sure about 
that though, comments ? 
(It probably is just the bass or the guitar playing the both notes.)

Rhy fig.2 x 4 (01:05-01:37)
|----------------------------------------------------|        
|----------------------------------------------------|  
|----------------------------------------------------|    
|---------------------------------------------/99999-|    
|--7777777-6666666-7----7----7----7----7----7-/77777-|
|--5555555-4444444-5-55-5-55-5-55-5-55-5-55-5--------|
                     ..   ..   ..   ..   ..

Rhy fig.3 x 8 (01:37-02:09)
|-------------------------------------------|      
|-------------------------------------------|   
|-------------------------------------------|        
|--------5-5-------5-5----------------9/8/5-|  
|--2-222-3-3-2-222-3-3-7----7----6----7/6/3-|
|--0-000-----0-000-----5-55-5-55-4-44-------|
                         ..   ..   ..

Rhy fig.2 x 4 (02:09-02:41)
 
Rhy fig.1 x 3 (w/riff 1) (02:41-03:30)

Rhy fig.4 (w/riff.2 x 4) (03:30-04:02)
(If somebody has Rhy fig.4, please mail it to me.)
(Rhy fig.4 starts with F# , that much I know...)
Riff.2 
|----------------------------|
|----------------------------|
|-----6-----7--------6--8--9-|
|--7-----9-----9-------------|
|----------------------------|
|----------------------------|

Rhy fig.3 x 8 (04:02-04:34)       

Rhy fig.4 (w/riff.2 x 8) (04:34-05:39)             

That should be it , pretty much anyway.
Feedback
Comments