Thursday - Wind Up Chords & Tabs

 

Wind Up Chords & Tabs

Thursday Chords & Tabs

Version: 1 Type: Tab 0 ratings
1 star 2 stars 3 stars 4 stars 5 stars
comments

Wind Up Tab

--------------------------------------------------------------------------------
                            WIND UP - THURSDAY
--------------------------------------------------------------------------------

tabbed by: randy cornett
e-mail: thursday_calgone@hotmail.com

tuning: Dropped D

I can't believe nobody has tabbed this yet! Oh well, here's my shot at it.

e-----------------------------------------------------------
B--------------------------3--3--1--0h1p0---------3--3-3----
G-----------7-----7--------2--2--2----------------2--2-2----
D--------5-----5--5--------0--0----------------0-----0-0----
A-----5-----------5-------------------------2--------2-2----
D--5--------------5----0------------------------------------
  "Just ahead I see you winding up...."

e-------------------------|
B-----------0h1-0---------|
G--------0------------0---|
D-----2------------2------|
A--3----------------------|
D-------------------------|

(second part)
e--------------------------------------------------------------------------|
B--------------------------------------------------------------------------|
G-----------7/9--7-5-7-------------5-------------------4---------------5---|
D--------5----------------------3-----3-------------2-----2----------3-----|
A-----5----------------------3-----------3-------2-----------2-----3-------|
D--5----------------------3-------------------2------------------3---------|
        "until these tightened strides.........they march in time again...
[ Tab from: http://www.guitartabs.cc/tabs/t/thursday/wind_up_tab.html ]
(third part)
e-----------------------------------------------------------------|
B-----------------------------------------------------------------|
G-----------------------------------------------------------------|   X 2
D-------9-------10-10--------9------10-10--------9-------9h10-10--|
A--7-7------7-7---------7-7-----7-7---------7-7-----7-7-----------|
D-----------------------------------------------------------------|
                "I don't know.....        I don't know...

(Full Distortion)
e---------------------------------------------------------------|
B---------------------------------------------------------------|
G---------------------------------------------------------------|
D--2-2-2~---x-x---2-2-2~---x-x---2-2-2~---x-x---2-2-2~----------|
A--2-2-2~---x-x---2-2-2~---x-x---2-2-2~---x-x---2-2-2~----------|
D--2-2-2~---x-x---2-2-2~---x-x---2-2-2~---x-x---2-2-2~----------|
  "Guiding it!"   "winding up!  "leading me!"   "winding up..."

e---------------------------------------------------------------------|
B---------------------------------------------------------------------|
G-----------5-5/4-4---------5-5/4-4---------5-5/4-4---------5-5/4-4---|
D-----2-2-2-x-x/x-x---5-5-5-x-x/x-x---2-2-2-x-x/x-x---5-5-5-x-x/x-x---|
A-----2-2-2-3-3/2-2---3-3-3-3-3/2-2---2-2-2-3-3/2-2---3-3-3-3-3/2-2---|
D-----2-2-2-----------3-3-3-----------2-2-2-----------3-3-3-----------|
 "to explode!"

e---------------------------------------------------------------|
B---------------------------------------------------------------|
G---9-9-9-9-9---5-5-4-4-5----9-9-9-9-9----12-12-12-12\14-14-14--| X 2
D---x-x-x-x-x---x-x-x-x-x----x-x-x-x-x----10-10-10-10\12-12-12--|
A---7-7-7-7-7---3-3-2-2-3----7-7-7-7-7----10-10-10-10\12-12-12--|
D-----------------------------------------10-10-10-10\12-12-12--|
               "It's the sound of your racing heart!"
 

e-------------------------------------|
B-------------------------------------|
G-------------------------------------|
D---5-5-5-5-5-5--2-2-2--2--2-2-2--2---| X 4
A---3-3-3-3-3-3--2-2-2--2--2-2-2--2---|
D----------------2-2-2--2--2-2-2--2---|
                  p.m       p.m.


than it pretty much all repeats itself. that's about it.
If you don't own Full Collapse, go out and buy it now!!!
Comments