Thursday - War All The Time Chords & Tabs

 

War All The Time Chords & Tabs

Thursday Chords & Tabs

Version: 7 Type: Tab 0 ratings
1 star 2 stars 3 stars 4 stars 5 stars
comments

War All The Time Tab

-------------------------------------------------------------------------------
			     War All the Time - Thursday
-----------------------------------------------------------------------------


Tuning:Standard

Intro by bass

Guitar 1

e|--------------17-17-17-17-----------------------------------|
B|--13-13-13-13-13-13-13-13-----------------------------------|
G|--------------------------14-14-14-14-14-14-14-14-----------|
D|-----------------------------15-15-15-15-15-15-15-----------| cont till end
A|------------------------------------------------------------|end of verse
E|------------------------------------------------------------|

Guitar 2
e|------------------------------------------------------------|
B|------------------------------------------------------------|
G|--12-10-9---------------------------------------------------| same here
D|----------10-9h10-9h10-9h10-9h10-9h10-9h10-9h10-9h10--------|
A|------------------------------------------------------------|
E|------------------------------------------------------------|
[ Tab from: http://www.guitartabs.cc/tabs/t/thursday/war_all_the_time_tab_ver_7.html ]
Guitar 1
e|------------------------------------------------------------|
B|------------------------------------------------------------|
G|------------------------------------------------------------|
D|------------------------------------------------------------| Replay Riff
A|---12-14-15-------------------------------------------------|Throughout
E|------------14----------------------------------------------|Chorus

Guitar 2

e|------------------------------------------------------------|
B|------------------------------------------------------------|
G|-------12----12---------------------------------------------| 1st riff
D|----14----14----12/10-12p10--9h10-9h10-9h10-9h10------------|
A|------------------------------------------------------------|
E|------------------------------------------------------------|

e|------------------------------------------------------------|
B|--13-13-13-12-12-12-10-10-10--------------------------------|
G|-----------------------------12-12-12-10-10-9-9-------------| 2nd riff
D|------------------------------------------------------------|
A|------------------------------------------------------------|
E|------------------------------------------------------------|

Im too lazy to tab out the rest. Try and figure out the rest.
Comments