Thursday - War All The Time Chords & Tabs

 

War All The Time Chords & Tabs

Thursday Chords & Tabs

Version: 3 Type: Tab 0 ratings
1 star 2 stars 3 stars 4 stars 5 stars
comments

War All The Time Tab

Thursday
War All the Time

I copied this from Thursday's new column in guitar world, 
but at least people will get the right way to play it. 

Tuning (low to high: DADFAD)

Guitar 1 plays this pretty much throughout 
the whole song except for that part at the end

|--------------------------------------------------------------------------
|--------------------------------------------------------------------------
|--------------------------------------------------------------------------
|-3-3-3-3-3-3-3-3--5-5-5-5--/2-2-2-2--/7-7-7-7-7-7-7-7--9-9-9-9--10-10-10\-
|-0-0-0-0-0-0-0-0--0-0-0-0---0-0-0-0---0-0-0-0-0-0-0-0--0-0-0-0---0--0--0--
|-3-3-3-3-3-3-3-3--5-5-5-5--/2-2-2-2--/7-7-7-7-7-7-7-7--9-9-9-9--10-10-10\-

Guitar 2 Intro
w/reverb and echo

|-5-------3--------2-------------------------------------------------------
|----------------------------3---------2h3p2p0-----------------------------
|--------------------------------------------------------------------------
|--------------------------------------------------------------------------
|--------------------------------------------------------------------------
|--------------------------------------------------------------------------

Guitar 2 Chorus

|---5p2p0--------------------------|
|-0--------5p3p2p0--2h3p20-2h3p2p0-|
|----------------------------------|
|----------------------------------|
|----------------------------------|
|----------------------------------|
[ Tab from: http://www.guitartabs.cc/tabs/t/thursday/war_all_the_time_tab_ver_3.html ]
|--0--0--0--0--0--0--0--0--0--0--0--0-0-0-0-0------
|-15-15-15-14-14-14-12-12-12-10-10-10-8-8-7-7------
|--------------------------------------------------
|--------------------------------------------------
|--------------------------------------------------
|--------------------------------------------------

|-14-14--0--0-14-14--0--0-14-14--0--0-14-14--0--0--------
|-15-15-15-15-15-15-15-15-15-15-15-15-15-15-15-15--------
|-16-16-16-16-16-16-16-16-16-16-16-16-16-16-16-16--------
|--------------------------------------------------------
|--------------------------------------------------------
|--------------------------------------------------------

|-17-17--0--0-17-17--0--0-17-17--0--0-17-17--0--0--------
|-15-15-15-15-15-15-15-15-15-15-15-15-15-15-15-15--------
|-16-16-16-16-16-16-16-16-16-16-16-16-16-16-16-16--------
|--------------------------------------------------------
|--------------------------------------------------------
|--------------------------------------------------------

I figured this part out watching them on Conan or whoever they were on

Gtrs. 1 and 2

|---------------------------------------------------------------------
|---------------------------------------------------------------------
|----------5-5-5-5---------5-5-5-5---------5-5-5-5---------5-5-5-5----
|--3-3-3-3-5-5-5-5-3-3-3-3-5-5-5-5-7-7-7-7-5-5-5-5---------5-5-5-5----
|--3-3-3-3-5-5-5-5-3-3-3-3-5-5-5-5-7-7-7-7-5-5-5-5-7-7-7-7-5-5-5-5----
|--3-3-3-3---------3-3-3-3---------7-7-7-7---------7-7-7-7------------
N.H        - - - -         - - - -         - - - -         - - - -

That's it. enjoy
Comments