Thursday - War All The Time Chords & Tabs

 

War All The Time Chords & Tabs

Thursday Chords & Tabs

Version: 5 Type: Bass Tab 0 ratings
1 star 2 stars 3 stars 4 stars 5 stars
comments

War All The Time Bass Tab

War All the Time - Thursday

Verse (0:30)
G|--------------------------------------------------------------------------|
D|------------------------------------14---12-------------------------------|
A|-15----14----12----10~~--/15---14-------------15----14----12----10----8~--|
D|--------------------------------------------------------------------------|

Chorus
G|------------------------------|x3
D|------------------------------|
A|------------------------------|
D|--3---3--4--2---7---7--9--10--|

Verse
G|-------------------------------------------------------------------------|
D|-------------------------------------------------------------------------|
A|------------7--5----3---2---0------------------7--5----3---2---0---------|
D|-3~---/10-9---------------------5---3~---/10-9---------------------5---3-|

Chorus
G|--------------------------------------------|x2 
D|--------------------------------------------|
A|--------------------------------------------|
D|--33333333-4444-2222-77777777-9999-10101010-| 
[ Tab from: http://www.guitartabs.cc/tabs/t/thursday/war_all_the_time_btab_ver_5.html ]
Verse
G|------------------|x3|---------------------|
D|------------------|  |---------------------|
A|-----------7--5~--|  |-3---2---0-----------|
D|-3~--/10-9--------|  |-------------5---3~--|

Chorus
G|--------------------------------------------|x2 
D|--------------------------------------------|
A|--------------------------------------------|
D|--33333333-4444-2222-77777777-9999-10101010-|

G|--------------------------------------|
D|--------------------------------------|
A|--88888888-55555555-77777777-33333333-|
D|--------------------------------------|

G|--------------------------------------------|x2
D|--------------------------------------------|
A|--------------------------------------------|
D|--33333333-4444-2222-77777777-9999-10101010-|

Bridge
G|--------------------------------------------| 
D|--------------------------------------------|
A|--------------------------------------------|
D|--3333-xxxx-3333-xxxx-7777-xxxx-7777-xxxx---|

Final Chorus
G|----------------------------------------------|x4|-----------|
D|----------------------------------------------|  |-----------|
A|----------------------------------------------|  |-----------|
D|-33333333-55555-9p7h9p-77777777-10101010-9999-|  |-3~~~------|
Comments