Thursday - War All The Time Chords & Tabs

 

War All The Time Chords & Tabs

Thursday Chords & Tabs

Version: 3 Type: Bass Tab 0 ratings
1 star 2 stars 3 stars 4 stars 5 stars
comments

War All The Time Bass Tab

h=hammer on
p=pull off
/=slide up
=slide down

  bass enters at approx. 00:27
G|-----------------------0------0------9------7------5----5----0---0--|
D|--14------12----(14)--10------9------7------5------3----3/--10---9/-|
A|--------------------------------------------------------------------|
D|--------------------------------------------------------------------|

G|---0-------0-------0------0------9------7------5--------------------|
D|--14------12------10------9------7------5------3--------------------|
A|--------------------------------------------------------------------|
D|--------------------------------------------------------------------|

  chorus 1 (let the notes RING)
G|--------------------------------------------------------------------|
D|--------------------------------------------------------------------|
A|--------------------------------------------------------------------|
D|--3-----3-----3-3-5---5-5-2---2-2-7-----7-----7-7-9---9---10----10--|

  verse 2
G|-----------------------------------------------------------------|
D|-----------------------------------------------------------------|
A|-----------------------------------------------------------------|
D|--3----3/--10---9/-----14------12------10------9-------7------5--|

  chorus 2 (let the notes RING)
G|--------------------------------------------------------------------|
D|--------------------------------------------------------------------|
A|--------------------------------------------------------------------|
D|--3-----3-----3-3-5---5-5-2---2-2-7-----7-----7-7-9---9---10----10--|

  verse 3 - yes verse 2 IS DIFFERENT than verse 3
G|-----------------------------------------------------------------------|
D|-----------------------------------------------------------------------|
A|-----------------------------------------------------------------------|
D|--3----3/--10---9/----14------12------3----3/--10---9------14------12--|

|------------------------------------------------------------------------------|
D|-----------------------------------------------------------------------------|
A|-----------------------------------------------------------------------------|
D|--3----3/--10---9/----14------12------10------9-------7------5------3--------|
[ Tab from: http://www.guitartabs.cc/tabs/t/thursday/war_all_the_time_btab_ver_3.html ]
  chorus 3
G|-----------------------------------------------------------------------|
D|-----------------------------------------------------------------------|
A|-----------------------------------------------------------------------|
D|--3-3-3-3-3-3-3-3-5-5-5-5-2-2-2-2-7-7-7-7-7-7-7-7-9-9-9-9-10-10-10-10--|

G|-----------------------------------------------------------------------|
D|-----------------------------------------------------------------------|
A|-----------------------------------------------------------------------|
D|--3-3-3-3-3-3-3-3-5-5-5-5-2-2-2-2-7-7-7-7-7-7-7-7-9-9-9-9-10-10-10-10--|

G|---------------------------------------------------------------------------|
D|---------------------------------------------------------------------------|
A|--------------------------------------------------17-17-17-17-17-17-17-17--|
D|--15-15-15-15-15-15-15-15-12-12-12-12-12-12-12-12--------------------------|

G|---------------------------|
D|---------------------------|
A|---------------------------|
D|--10-10-10-10-10-10-10-10--|

G|-----------------------------------------------------------------------|
D|-----------------------------------------------------------------------|
A|-----------------------------------------------------------------------|
D|--3-3-3-3-3-3-3-3-5-5-5-5-2-2-2-2-7-7-7-7-7-7-7-7-9-9-9-9-10-10-10-10--|

G|-----------------------------------------------------------------------|
D|-----------------------------------------------------------------------|
A|-----------------------------------------------------------------------|
D|--3-3-3-3-3-3-3-3-5-5-5-5-2-2-2-2-7-7-7-7-7-7-7-7-9-9-9-9-10-10-10-10--| end chorus

  break
G|-------------------------------------------------|
D|-------------------------------------------------|
A|-------------------------------------------------|
D|--3-3-3-3----3-3-3-3----7-7-7-7----7-7-7-7-------|

G|--------------------------------------------------|
D|--------------------------------------------------|
A|--------------------------------------------------|
D|--3-3-3-3----3-3-3-3----7-7-7-7----7-7-7-7----7---|

  outro
G|----------------------------------------------------------------------------|
D|----------------------------------------------------------------------------|
A|----------------------------------------------------------------------------|
D|--3-3-3-3-3-3-3-3-5-5-5-5-5-5-5-9-9-9-9-7-7-7-7-7-7-7-7-10-10-10-9-9-9-9-9--|
Comments