Thursday - Understanding In A Car Crash Chords & Tabs

 

Understanding In A Car Crash Chords & Tabs

Thursday Chords & Tabs

Version: 4 Type: Tab 0 ratings
1 star 2 stars 3 stars 4 stars 5 stars
comments

Understanding In A Car Crash Tab


Intro and chorus
e[------------------------------------------------------]
b[---------5-0-0-----5-0-0-----------5-0-0-----5-0-0----]
g[----5-0-0-----5-0-0-----5-0---5-0-0-----5-0-0-----5-0-]
d[-7-7-----------------------3-3------------------------]
a[------------------------------------------------------]
d[------------------------------------------------------]
x5
[ Tab from: http://www.guitartabs.cc/tabs/t/thursday/understanding_in_a_car_crash_tab_ver_4.html ]
Verse 1
e[------------------------------------------------------]
b[-------8-------------------5--------------------------]
g[---5-------5---4-4-5---5-------4-4-5------------------]
d[-7---7---7---7-------3---3---3------------------------]
a[------------------------------------------------------]
d[------------------------------------------------------]
x5

Chorus x5

Verse 2
e[----10]
b[-5--10]
g[-7-- 7]
d[------]
a[------]
d[------]
x4

Verse 1 x2

Verse 3
e[-----------------------------------]
b[-8--------5-------3-----------6----]
g[-5-x4-----5--x4----5-x4-----4h5r4--]
d[-----------------------------------]
a[-----------------------------------]
d[-----------------------------------]
x4

Chorus x5

Verse 2
Comments