Thursday - Understanding In A Car Crash Chords & Tabs

 

Understanding In A Car Crash Chords & Tabs

Thursday Chords & Tabs

Version: 1 Type: Tab 0 ratings
1 star 2 stars 3 stars 4 stars 5 stars
comments

Understanding In A Car Crash Tab


Intro and Chorus x5
e|---------------------------------------------------------------------------| 
B|---------5-0-0-----5-0-0-----------5-0-0-----5-0-0-------------------------| 
G|----5-0-0-----5-0-0-----5-0---5-0-0-----5-0-0-----5-0----------------------| 
D|-7-7~~~--------------------3-3~~~------------------------------------------| 
A|---------------------------------------------------------------------------| 
D|---------------------------------------------------------------------------| 
[ Tab from: http://www.guitartabs.cc/tabs/t/thursday/understanding_in_a_car_crash_tab.html ]
Verse 1     x 5
e|---------------------------------------------------------------------------|
B|-------8--------------------5----------------------------------------------|
G|---5-------5---4-4-5----5-------4-4-5--------------------------------------|
D|-7---7---7---7--------3---3---3--------------------------------------------|
A|---------------------------------------------------------------------------|
D|---------------------------------------------------------------------------|

   x5

Verse 2     x 4
e|----10---|
B|-5--10---|
G|-7--(7)?-|
D|---------|
A|---------|
D|---------|

   x2
e|-------------------------------------|
B|-8--------5-------3------------6-----|
G|-5-x4-----5--x4----5--x4------4*5*4---|
D|-------------------------------------|
A|-------------------------------------|
D|-------------------------------------|

Chorus x 5 

Verse 2 

Break  x 7
e|-------15-------15-|
B|-12-13----12-13----|
G|-------------------|
D|-------------------|
A|-------------------|
D|-------------------|


e|---------------------------|
B|---------------------------|
G|-5-5-7-5-----5-7-7--12-----|
D|-7-5-9-7-x2--7-9-10-12-x2--|
A|---------------------------|
D|---------------------------|

Break for a few times then end on B|--12--|

questions dadio3164@aol.com
Comments