Thursday - Tomorrow Ill Be You Chords & Tabs

 

Tomorrow Ill Be You Chords & Tabs

Thursday Chords & Tabs

Version: 3 Type: Tab 0 ratings
1 star 2 stars 3 stars 4 stars 5 stars
comments

Tomorrow Ill Be You Tab

                 -Tomarrow I'll Be You-by-Thursday

Guitar 1 - Left Speaker
Guitar 2 - Right Speaker
Dropped D tuning Low to High-> (DABGBE)

-------Guitar 1--------

Intro -Palm Mute

e---------------------|
b---------------------|
g-11-11-11-11-11-11---|
d-9--9--9--9--9--9----|
a---------------------|
D---------------------|
Pm....................

First Verse

e--------------------------------------|
b-3-3-3--3-3-3-------------------------|
g-x-x-x--x-x-x-------------------------|
d-4-4-4--2-2-2--7-7-7--(x2)--8888888---|
a-2-2-2--2-2-2--5-5-5--------8888888---|
D--------2-2-2--5-5-5--------8888888---|

2nd Part of verse

e----------------------|
b----------------------|
g--------------7bubd---|
d-9999-4444-5555-------|  (x4)
a-9999-4444-5555-------|
D-9999-4444-5555-------|

Transition to next verse "at this velocity"

e-----------------------------|
b-----------------------------|
g-----------------------------|
d-2-2/4---7-(7)-(7)-(7)-(7)---|  (volume swells)
a-2-------5-(5)-(5)-(5)-(5)---|
D-----------------------------|
-vol swell   ^   ^   ^   ^

Next Verse "On every block..."

e--10----9----0~----0~------|
b--0-----0----5/7---5/3/2---|
g---------------------------| (x2)
d---------------------------|
a---------------------------|
D---------------------------|

"Cut the jet black..."

e-0--0--0--0--0--0--0--0--0--0--0--0--0--0--0--0--0---|
b-15-15-15-15-15/17-17-17/14-14-14-14-14/19-19-19-19--|
g-----------------------------------------------------|
d-----------------------------------------------------|
a-----------------------------------------------------|
D-----------------------------------------------------|

Chorus "on new years day..i will change back.."

e-10-10-10-10-9--9--9--9--10-10-10-10-10-10-10-10-10---|
b-7--7--7--7--7--7--7--7--8--8--8--8--8--7--7--7--7----|
g------------------------------------------------------|
d------------------------------------------------------|
a------------------------------------------------------|
D------------------------------------------------------|

"In the flame....of dead presidents"

e----------------------------------------------------------|
b-7-7-7-7-10-10-10-10-10-10-10-10-10-7--8--7--8--7--7--7---|
g-7-7-7-7-9--9--9--9--7--7--7--7--7--7--7--7--7--7--7--7---|
d----------------------------------------------------------|
a----------------------------------------------------------|
D----------------------------------------------------------|

"Were too lost to .... maybe the night seems so dark"

e---------9-9-9-9-10-10-10-10-10-10-10-10-10-10-10---|
b-7-7-7-7-7-7-7-7-8--8--8--8--7--7--7--7--7--7--7----|
g-7-7-7-7--------------------------------------------|
d----------------------------------------------------|
a----------------------------------------------------|
D----------------------------------------------------|

"the day is much too bright"

e----------------------------------------------------------|
b-7-7-7-7-10-10-10-10-10-10-10-10-10-7--8--7--8--7--7--7---|
g-7-7-7-7-9--9--9--9--7--7--7--7--7--7--7--7--7--7--7--7---|
d----------------------------------------------------------|
a----------------------------------------------------------|
D----------------------------------------------------------|

Bridge "the paino player"

e--0--0--0--0-0-0-0-0-0-0-0---|
b-14-14-14-14-7-7-7-8-8-8-8---|
g-----------------------------|
d-----------------------------|
a-----------------------------|
D-----------------------------|

Next Bridge "as the language disolves

e--------------------------------|
b-10-10-10-10-10--12-12-12-12----|
g-11-11-11-11-11--x--x--x--x-----|
d-9--9--9--9--9---9--9--9--9-----|
a--------------------------------|
D--------------------------------|

"&^^%^&%*^&^@" -clean-
[ Tab from: http://www.guitartabs.cc/tabs/t/thursday/tomorrow_ill_be_you_tab_ver_3.html ]
e---------------------------------|
b-5-5-5-5-5-5-5-5-3-3-3-3-3-3-3---|
g---------------------------------|
d---------------------------------|
a---------------------------------|
D---------------------------------|

"tomarrow ill be you..just pick up the phone" - Distortion-

e-0-0-0-0-0-0-0-0-0-0-0-0-0-0-0-0-0-0---|
b-5-5-5-5-5-5bubububd-5-5-3-3-3-3-3-3---|
g---------------------------------------|
d---------------------------------------|
a---------------------------------------|
D---------------------------------------|

Repeat Chorus and thats all for Guitar 1


-----Guitar2------

intro

e-------------------------9-10-9----10-9----9-10--------10-9-10------|
b------12-------12---------------12------12-------12------------12---|
g---11----11-11----11--------------------------------11-----------11-|
d-9--------------------9---------------------------------------------|
a--------------------------------------------------------------------|
D--------------------------------------------------------------------|

e-12/14-12----14-----15----14---14---14--14---|
b----------12-----12----15---15---15---15-----|
g--------------12-----------------------------|
d---------------------------------------------|
a---------------------------------------------|
D---------------------------------------------|

First Verse

e--------------------------------------|
b-3-3-3--3-3-3--3-3-3------------------|
g-x-x-x--x-x-x--x-x-x------------------|
d-4-4-4--2-2-2--5-5-5--(x2)--8888888---|
a-2-2-2--2-2-2--5-5-5--------8888888---|
D--------2-2-2--5-5-5--------8888888---|

2nd part of verse

e------------------------------------------------------------------------------|
b------------------------------15----15---------15-----------15--------15------|
g---------------------------18^---18-------0-------0----0-----------0----0-----|
d-9999-4444-5555-(x2)-9999--------------16---16------16---16-----16---16---16--|
a-9999-4444-5555------9999-----------------------------------------------------|
D-9999-4444-5555------9999-----------------------------------------------------|


Transition to next verse "at this velocity"

e-----------------------------|
b-----------------------------|
g-----------------------------|
d-2-2/4---7-(7)-(7)-(7)-(7)---|  (volume swells)
a-2-------5-(5)-(5)-(5)-(5)---|
D-----------------------------|
-vol swell   ^   ^   ^   ^

Next Verse "on every block"

e------------------------------------|
b-0-------0--------0------0----------|
g-0-------0--------0------0----------|
d------------------------------------|
a------------------------------------|
D------------------------------------|

Chorus -"On new years day"

e-------------------|
b-------------------|
g-------------------|
d-99999-7777-5555---|
a-99999-7777-5555---|
D-99999-7777-5555---|

a third guitar on the album version plays this

g-6-7-6-7-6-7-6-7---

Bridge "the paino player"

e--0--0--0--0-0-0-0-0-0-0-0---|
b-14-14-14-14-7-7-7-8-8-8-8---|
g-----------------------------|
d-----------------------------|
a-----------------------------|
D-----------------------------|


Next Bridge "as the language disolves

e--------------------------------|
b-10-10-10-10-10--12-12-12-12----|
g-11-11-11-11-11--x--x--x--x-----|
d-9--9--9--9--9---9--9--9--9-----|
a--------------------------------|
D--------------------------------|


"&^^%^&%*^&^@" -clean-

e---------------------------------|
b-5-5-5-5-5-5-5-5-3-3-3-3-3-3-3---|
g---------------------------------|
d---------------------------------|
a---------------------------------|
D---------------------------------|

"tomarrow ill be you"

e-14-14-14-14--14-14-14-14-----------------------------|
b-0--0--0--0---15-15-15-15--15-15-15-15-15^15^15^15^---|
g---------------------------18-18-18-18-18-18-18-18----|
d------------------------------------------------------|
a------------------------------------------------------|
D------------------------------------------------------|

Reapete chorus and thats all
Comments