Thursday - Tomorrow Ill Be You Chords & Tabs

 

Tomorrow Ill Be You Chords & Tabs

Thursday Chords & Tabs

Version: 1 Type: Tab 0 ratings
1 star 2 stars 3 stars 4 stars 5 stars
comments

Tomorrow Ill Be You Tab

thursday
tomorrow i'll be you

tuning(low to high: dadgbe)
listen to song for rhythm and timing

intro
gtr1(w/delay)
|------------------------
|-0--0--0--0--0----------
|-11-11-11-11-11---------
|-9--9--9--9--9----------
|------------------------
|------------------------
PM-  -  -  -  -

gtr2
|------------------------------
|------12----------12----------
|---11----------------11-------
|-9---------11-11--------9-----
|------------------------------
|------------------------------
[ Tab from: http://www.guitartabs.cc/tabs/t/thursday/tomorrow_ill_be_you_tab.html ]
gtr1
|---------------------------
|--0-0-0-0-0----------------
|--0-0-0-0-0----------------
|--5-5-5-5-5----------------
|---------------------------
|---------------------------
PM - - - - -

gtr2
|-9h10--10p9--9h10--10p9-----0------
|-------------------------12--------
|-----------------------------------
|-----------------------------------
|-----------------------------------
|-----------------------------------

gtrs1&2(with dist.)
|---------------------------------
|---------------------------------
|---------------------------------
|-7-7-7-7--2-2-2-2--7-7-7-7-------
|-9-9-9-9--2-2-2-2--5-5-5-5-------
|-9-9-9-9--2-2-2-2--5-5-5-5-------

this is an awesome song. i regret to not tab the whole thing. i will try my best to.
Comments