Thursday - Streaks In The Sky Chords & Tabs

 

Streaks In The Sky Chords & Tabs

Thursday Chords & Tabs

Version: 1 Type: Tab 0 ratings
1 star 2 stars 3 stars 4 stars 5 stars
comments

Streaks In The Sky Tab

STREAKS IN THE SKY - Thursday

Joe StolenChairRecords@hotmail.com

this is nates tab, i just wanted to point out the intro is a lil dif, 
and prolly some other parts.

Intro: 2X 0:00-0:22
e|--------------------------------------|
B|--------------------------------------|
G|-9---7-5----7/9----7-5--12-11-12-14---|
D|-9-2-7-5--2------2-7-5----------------|
A|-7-2-5-3--2-5/7--2-5-3--10--9-10-12---|
E|---0------0------0--------------------|

Verse 1: 4X 0:23-0:42 (Listen for palm muting)
e|---------------------------------------------------|
B|-------8--------8---------7--7-7-7-7---------------|
G|-------9--------9---------7--7-7-7-7-7-7-5-5-4-4---|
D|-------------------------------------7-7-5-5-4-4---|
A|-7-7-7-7--7-7-7-7---5-5-5-5--5-5-5-5-5-5-3-3-2-2---|
E|-0-0-0----0-0-0-----0-0-0--------------------------|
[ Tab from: http://www.guitartabs.cc/tabs/t/thursday/streaks_in_the_sky_tab.html ]
Chorus: 1X 0:43-1:02 (... Let ring out)
e|-------------------------------------------------------------------------|
B|-------------------------------------------------------------------------|
G|-5----12-11-12-14--5----12-11-12-14-12-11-7--5----12-11-12-14--5-4-5-7---|
D|-5-----------------5-------------------------5-----------------5-4-5-7---|
A|-3...-10--9-10-12--3...-10--9-10-12-10--9-5--3...-10--9-10-12--3-2-3-5---|
E|-------------------------------------------------------------------------|

Play Intro Again: 2X 1:03-1:22

Verse 2: 3X 1:24-1:33 (Listen for palm muting)
e|-----------------------------------------|
B|-----8---8-----7-----5-------------------|
G|-----9---9-----7-----5---------------5---|
D|------------------------3RD TIME ADD-5---|
A|-7-7-7-7-7-5-5-5-3-3-3---------------3---|
E|-0-0---0-0-0-0---0-0---------------------|

Play Intro Again: 1X 1:34-1:44

Play Verse 1 Again: 4X 1:45-2:03

Play Chorus Again: 1X

Sorry, I have no idea for the slow part 2:24-3:07

Verse 3: 1X 3:07-3:38 (Listen for palm muting)
e|----------------------------------------|
B|----------------------------------------|
G|----------------7-5---7-5---7-5---7-5---|
D|-9-7-5--9-7-7-2-7-5-2-7-5-2-7-5-2-7-5---|
A|-7-5-3--7-5-3-2-5-3-2-5-3-2-5-3-2-5-3---|
E|--------------0-----0-----0-----0-------|

Ending: 2X 3:38-4:30 (Listen for palm muting)
e|--------------------------------------------------------------------------|
B|--------------------------------------------------------------------------|
G|---12-11-9-5----12-11-14-12-11-9----12-11-9-5---12-11-14-16----------11---|
D|-2------------2-------------------2-----------2-------------End with------|
A|-2-10--9-7-3--2-10--9-12-10--9-7--2-10--9-7-3-2-10--9-12-14-----------9---|
E|-0------------0-------------------0-----------0---------------------------|
Comments