Thursday - Steps Ascending Chords & Tabs

 

Steps Ascending Chords & Tabs

Thursday Chords & Tabs

Version: 1 Type: Tab 0 ratings
1 star 2 stars 3 stars 4 stars 5 stars
comments

Steps Ascending Tab

Thursday
Steps Ascending

tuning(low to high: dadgbe)

intro
gtr1
|-----7--------------7----------
|-5-5-5-5-5-8-5--5-5-5-5-5-8-5--
|-------------------------------
|-------------------------------
|-------------------------------
|-------------------------------
[ Tab from: http://www.guitartabs.cc/tabs/t/thursday/steps_ascending_tab.html ]
gtr2
|-0-0-0-0-0--0-0-0-0-0----------
|-5-5-5-5-5--5-5-5-5-5----------
|-5-5-5-5-5--X-X-X-X-X----------
|-3-3-3-3-3--2-2-2-2-2----------
|-0-0-0-0-0--0-0-0-0-0----------
|-------------------------------

gtr3
|-0-0-0-0-0--0-0-0-0-0----------
|-0-0-0-0-0--0-0-0-0-0----------
|-5-5-5-5-5--5-5-5-5-5----------
|-7-7-7-7-7--7-7-7-7-7----------
|-8-8-8-8-8--0-0-0-0-0----------
|-------------------------------
Comments