Thursday - Steaks In The Sky Chords & Tabs

 

Steaks In The Sky Chords & Tabs

Thursday Chords & Tabs

Version: 1 Type: Bass Tab 0 ratings
1 star 2 stars 3 stars 4 stars 5 stars
comments

Steaks In The Sky Bass Tab

   
Artist: Thursday
Album: Waiting
Song: Streaks in the Sky
Label: Eyeball
Bassist: Tim Payne
Tabbed by: Chris

x=mute

Intro
G|---------------------------------------------------------|
D|-------------------------------------------5--------5----|
A|-77777-55-33-7777-55-555777-7777-55-33-3333-333-3333-333-| 
E|---------------------------------------------------------|

G|---------------------------------------------------------|
D|-------------------------------------------5--------5----|
A|-77777-55-33-7777-55-555777-7777-55-33-3333-333-3333-333-| 
E|---------------------------------------------------------|

Verse 
G|---------------------------|
D|------------------------5--|
A|-xxx7-xxx-7--xxx5-xxx3-3-3-| 
E|---------0-0---------------|

G|---------------------------|
D|------------------------5--|
A|-xxx7-xxx-7--xxx5-xxx3-3-3-| 
E|---------0-0---------------|

G|---------------------------|
D|------------------------5--|
A|-xxx7-xxx-7--xxx5-xxx3-3-3-| 
E|---------0-0---------------|

G|---------------------------|
D|------------------------5--|
A|-xxx7-xxx-7--xxx5-xxx3-3-3-| 
E|---------0-0---------------|

[ Tab from: http://www.guitartabs.cc/tabs/t/thursday/steaks_in_the_sky_btab.html ]
Mid-Verse 
G|-------------------------------------|
D|-------------------------------------|
A|-33333333-33333333-------------------| 
E|-------------------00000000-00000000-|

G|-------------------------------------|
D|-------------------------------------|
A|-33333333-33333333-------------------| 
E|-------------------00000000-00000000-|


G|-------------------------------------|
D|-------------------------------------|
A|-33333333-33333333-------------------| 
E|-------------------00000000-00000000-|


G|----------------------------|
D|----------------------------|
A|-33333333-33333333-22223-35-|
E|----------------------------|

Intro x3

Intro Variation
G|-----------------|
D|-----------------|
A|-xx7-xx7-xx5-xx3-| x3
E|-----------------|

G|------------------|
D|------------------|
A|-33333333-3333333-|
E|------------------|

Intro x1
Verse x4
Midverse x1

Outro
G|---------------------------------|
D|---------------------------------|
A|-xxx7-55555555-xxxxxxxx-xxxxxxxx-| x2
E|---------------------------------|

G|-------------------------------|
D|----------7--------------------|
A|-xxx7-5555-555-3333333-3333333-|
E|-------------------------------|
Comments