Thursday - Signals Over The Air Chords & Tabs

 

Signals Over The Air Chords & Tabs

Thursday Chords & Tabs

Version: 6 Type: Tab 0 ratings
1 star 2 stars 3 stars 4 stars 5 stars
comments

Signals Over The Air Tab

Tabbed by:Zenab1
Song: Signals Over the Air
Band: Thursday

Tuning:Standard

Intro/verse:

Guitar 1:
e|----5---8-5----------------------------------------|
B|-5--5---0---8-5-6-5----5----5--5--6-5-3-5-3--------|
G|-5--4-------0--------7------5--2--0---------5-4-5--|
D|-5--5-----------------------5--3-------------------|
A|---------------------------------------------------| x5
E|---------------------------------------------------|

Guitar 2:
e|--5----7------------|
B|--5----8------------|played over the 4th time ^^
G|--------------------|
D|--------------------|
A|--------------------|
E|--------------------|

Guitar 1:
e|-------------------------------|
B|----13-13-10-0----8---8---8----|
G|-14b-----------12---9r--9r--9r-|
D|-------------------------------|
A|-------------------------------|
E|-------------------------------|

Chorus:

Guitar 1:
e|-5--5--5--5--1--3-------------------|
B|-5--7--5--7--1--3-------------------|havent wrote out strum pattern
G|-5--7--5--7--2--4-------------------|
D|-7--7--7--7--3--5-------------------|
A|-7--5--7--5--3--5-------------------| x2
E|-5--5--5--5--1--3-------------------|
[ Tab from: http://www.guitartabs.cc/tabs/t/thursday/signals_over_the_air_tab_ver_6.html ]
Guitar 2:
e|-7--8--10--12-------------------|played over 2nd time ^^
B|-x--x--x---x--------------------|not wrote out pattern, plays around with
G|-4--5--7---9--------------------|these octaves
D|--------------------------------|
A|--------------------------------|
E|--------------------------------|

Main Riff
Guitar 1: 
e|-----------------15------12------------------------------------|
B|-----13------13------13----------13------13------12/13\12------|
G|-14------14------------------14------14------14----------------|
D|---------------------------------------------------------------|
A|---------------------------------------------------------------|x8
E|---------------------------------------------------------------|

Guitar 1:
e|-5-----1-3------------------|
B|-5-----1-3------------------|
G|-5-----2-4------------------|
D|-7-----3-5------------------|
A|-7-----3-5------------------|x 4
E|-5-----1-3------------------|

Guitar 2
e|----------------------------|
B|-6-5-3-5----3---------------|
G|----------5---4-5-----------|
D|----------------------------|played over 4th time ^^
A|----------------------------|
E|----------------------------|

Guitar 1:
e|-5---0---5---0---5---0---5---0-5----------5----------|
B|-5---0---5---0---5---0---5---0-7----------7----------|
G|-5---1---5---1---5---1---5---1-7----------7----------|
D|-7---2---7---2---7---2---7---2-7 let ring-7----------|
A|-7---2---7---2---7---2---7---2-5----------5----------|
E|-5---0---5---0---5---0---5---0-5----------5---|back to chorus-|


Intro/verse
Chorus
Intro/verse
Chorus
Main Riff
Chorus
Comments