Thursday - Signals Over The Air Chords & Tabs

 

Signals Over The Air Chords & Tabs

Thursday Chords & Tabs

Version: 1 Type: Tab 0 ratings
1 star 2 stars 3 stars 4 stars 5 stars
comments

Signals Over The Air Tab

   
Thursday  
“Signals Over the Air”
By: bt12483@aol.com

h=hammer on
p=pull off
d=down
u=up
b=bend
/=slide
r=let ring
p.m.=palm mute

Intro and Verse:

Guitar 1:

      u  d                         u d 
e|-------------------------------------------------------|
B|-5-10-10-10h13p10-8---8--------5-----------------------|
G|-5------------------9---9-7h9--5-9-9-10-9-7-9-7--------|
D|-7--9--9-----------------------7-9-9------------10-9h7-|
A|-------------------------------------------------------|
D|-------------------------------------------------------|

Guitar 2: comes in around 0:24 mark

   d d d d d u d u d d d d d d d u d u d  repeat
e|-5-5-5-5-5-5-5-5-5-7-7-7-7-7-7-7-7-7-7-|
B|---------------------------------------|
G|---------------------------------------|
D|---------------------------------------|
A|---------------------------------------|
D|---------------------------------------|

Background Riff: comes in around 0:36 and 1:23 mark

e|-------------------------------|
B|----13-13-10-0----8---8---8----|
G|-14b-----------12---9r--9r--9r-|
D|-------------------------------|
A|-------------------------------|
D|-------------------------------|

Chorus: 
[ Tab from: http://www.guitartabs.cc/tabs/t/thursday/signals_over_the_air_tab.html ]
Guitar 1: listen for strumming pattern

e|---------------------|
B|---------------------|
G|---------------------|
D|-7-7-3-5----7/12-3-5-|
A|-7-7-3-5----7/12-3-5-|
D|-7-7-3-5----7/12-3-5-|

Guitar 2: octave chords, play around with these configurations

e|-------------|
B|-------------|
G|-14-19-17-16-|
d|-xx-xx-xx-xx-|
A|-12-17-15-14-|
D|-------------|

Repeat Verse
Repeat Chorus

Riff: comes in around 1:58 mark

e|----------15p0-12p0-10p0-8p0-7h8h7-----|
B|----13-----------------------------10r-|
G|-14----14------------------------------|
D|---------------------------------------|
A|---------------------------------------|
D|---------------------------------------|

Bridge:

Soft part    p.m.............(listen for pattern)
e|---------------------------|
B|-----------5---------------|
G|-5r--------5---------------|
D|-7r-7r--9r-7---------------|
A|----5r-10r-----------------|
D|---------------------------|

Heavy Part (some stuff in background, maybe keyboard? Or high octave)

e|----------------------------------|
B|----------------------------------|
G|----------------------------------|
d|-7777777-2222222-77777777-2222222-|
A|-7777777-2222222-77777777-2222222-|
d|-7777777-2222222-77777777-2222222-|

Repeat Chorus
Repeat Riff   (until the end of the song)



I think this is pretty close.  It’s at least a start.  Don’t steal my shit.
Comments