Thursday - Signals Over The Air Chords & Tabs

 

Signals Over The Air Chords & Tabs

Thursday Chords & Tabs

Version: 1 Type: Bass Tab 0 ratings
1 star 2 stars 3 stars 4 stars 5 stars
comments

Signals Over The Air Bass Tab

/ = slide
h = hammer on/pull off
r = bend and release



                         
G||--------------------||
D||--------------------||
A||--------------------||
D||--------------14/---||

  verse
||-----------------------|------------------------|-----------------------|
||*----------------------|------------------------|-----------------------|
||*----------------------|------------------------|-----------------------|
||---7----7----7----7----|--3------0-3p--0--3h-5--|--0--5--7----7----7----|
                                                                  
--------------------------|----------------------|------------------------|
-----5--5--5--5--5--------|----------------------|------------------------|
--3-----------------------|------------7---------|------------------------|
--------------------0--3/-|--7----7---------7----|--3------0--3p-0--3h-5--|
                                                                            
-----------------------|---------------------------||
-----------------------|--------------------------*||
-----------------------|--3--3--3-----------3-----*||
--0--5--7----7----7----|-----------0--3--5-----5---||





pre chorus                                                    
||--------------------------|--------------------------|
||--------------------------|--------------------------|
||--------------------------|--------------------------|
||--7--7--7--7--7--7--7--7--|--3--3--3--5--5--5--5--5--|
                                                      
--------------------------|--------------------------|
--------------------------|--------------------------|
--------------------------|--------------------------|
--7--7--7--7--7--7--7--7--|--3--3--3--5--5--5--5--5--|
                                                     
--------------------------|--------------------------|
--------------------------|--------------------------|
--------------------------|--------------------------|
--7--7--7--7--7--7--7--7--|--3--3--3--5--5--5--5--5--|
                                                                             
--------------------------|----------------------||
--------------------------|----------------------||
--------------------------|----------------------||
--7--7--7--7--7--7--7--7/-|--15--15--15--15--15--||




  chorus
||--------------------------|--------------------------|
||*-------------------------|--------------------------|
||*-------------------------|--------------------------|
||---0--0--0--7----7--7--7--|--7--7--7--7--7--7--7--7--|
                                                                                
-------------------------|--------------------------|
-------------------------|--------------------------|
-------------------------|--------------------------|
--0--0--0--7----7--7--7--|--7--7--7--7--7--7--7--7--|
                                                                          
------------------------|----------------------|
------------------------|----------------------|
------------------------|----------------------|
--0--0--0--3----3--3----|--3----3----3----3----|

------------------------|----------------------||
------------------------|---------------------*||
------------------------|---------------------*||
--0--0--0--5----5--5----|--5----5----5----5----||




  verse                                                
||----------------------|------------------------|-----------------------|
||----------------------|------------------------|-----------------------|
||----------------------|------------------------|-----------------------|
||--7----7----7----7----|--3------0--3p-0--3h-5--|--0--5--7----7----7----|
                                                                          
--------------------------|----------------------|------------------------|
-----5--5-----5-----------|----------------------|------------------------|
--3--------3-----3--------|------------7---------|------------------------|
--------------------0--3/-|--7----7---------7----|--3------0--3p-0--3h-5--|
                                                                           
-----------------------|-------------------------||
-----------------------|-------------------------||
-----------------------|--3--3-------------------||
--0--5--7----7----7----|----------0--3--5--5--5--||





pre chorus                                                      
--------------------------|--------------------------|
--------------------------|--------------------------|
--------------------------|--------------------------|
--7--7--7--7--7--7--7--7--|--3--3--3--5--5--5--5--5--|
                                                     
--------------------------|--------------------------|
--------------------------|--------------------------|
--------------------------|--------------------------|
--7--7--7--7--7--7--7--7--|--3--3--3--5--5--5--5--5--|
                                                     
--------------------------|--------------------------|
--------------------------|--------------------------|
--------------------------|--7--7--7--7--7--7--7--7--|
--7--7--7--7--7--7--7--7--|--------------------------|
                                                         
--------------------------|-------------------------------|
--------------------------|-------------------------------|
--8--8--8--8--8--8--8--8--|--10--10--10--10--10-----------|
--------------------------|-------------------------------|




  chorus
||--------------------------|--------------------------|
||*-------------------------|--------------------------|
||*-------------------------|--------------------------|
||---0--0--0--7----7--7--7--|--7--7--7--7--7--7--7--7--|
                                                                                
-------------------------|--------------------------|
-------------------------|--------------------------|
-------------------------|--------------------------|
--0--0--0--7----7--7--7--|--7--7--7--7--7--7--7--7--|
                                                                          
------------------------|----------------------|
------------------------|----------------------|
------------------------|----------------------|
--0--0--0--3----3--3----|--3----3----3----3----|

------------------------|----------------------||
------------------------|---------------------*||
------------------------|---------------------*||
--0--0--0--5----5--5----|--5----5----5----5----||


    
[ Tab from: http://www.guitartabs.cc/tabs/t/thursday/signals_over_the_air_btab.html ]
7's and 3's on the up beat                5's on the down beat        
------------------|----------------------|-----------------|----------------------|
------------------|----------------------|-----------------|----------------------|
------------------|----------------------|-----------------|----------------------|
--7-x-7-x-7-x-7-x-|--7-x-7-x-7--0--0--0--|-7-x-7-x-7-x-7-x-|--7-x-7-x-7--0--0--0--|
                                                                        
------------------|----------------------|----------------------|-------------------|
------------------|----------------------|----------------------|-------------------|
------------------|-------------3--5--5--|----------------------|-------------------|
--3-x-3-x-3-x-3-x-|--3-x-3-x-3-----------|--5----5--5---5---5---|--5---5---0--0--0--|

------------------|----------------------|-----------------|----------------------|
------------------|----------------------|-----------------|----------------------|
------------------|----------------------|-----------------|----------------------|
--7-x-7-x-7-x-7-x-|--7-x-7-x-7--0--0--0--|-7-x-7-x-7-x-7-x-|--7-x-7-x-7--0--0--0--|
                                                                        
------------------|----------------------|--------------------|---------------------|
------------------|----------------------|--------------------|---------------------|
------------------|-------------3--5--5--|--------------------|-----5---------------|
--3-x-3-x-3-x-3-x-|--3-x-3-x-3-----------|--5---5--5---5---5--|--5-----5--5-0--0--0-|



                                                                    
||--------------------|------------------|-------------------|--------------------||
||*-------------------|------------------|-------------------|-------------------*||
||*-------------------|------------------|-------------------|-------------------*||
||---7----------------|------------------|--3----------------|--5-----------------||
                                         
----------------------|----------------------|----------------------|
----------------------|----------------------|----------------------|
----------------------|----------------------|----------------------|
--7----7----7----7----|--7----7----7----7----|--3----3----3----3----|
                                                                    
-----------------------|--------------------------|--------------------------|
-----------------------|--------------------------|--------------------------|
-----------------------|--------------------------|--8--8--8--8--8--8--8--8--|
--3h-5--5----5----5----|--7--7--7--7--7--7--7--7--|--------------------------|
                                                                   
----------------------------||
----------------------------||
--10--10--10--10--10--------||
----------------------------||




||---------------------|---------------|--------------------|------------------||
||*--------------------|---------------|--------------------|-----------------*||
||*--------------------|--8r-----------|--------------------|-----------------*||
||---7--7--7--7--7--7--|---------------|--2--2--2--2--2--2--|--0----0----0-----||

4th time                                                                           
--------------------|---------------|--------------------------|-------------------|
--------------------|---------------|--------------------------|-------------------|
--------------------|--8r-----------|--------------------------|-------------------|
--7--7--7--7--7--7--|---------------|--2--2--2--2--2--2--2--2--|--0----------------|




  chorus
||--------------------------|--------------------------|
||*-------------------------|--------------------------|
||*-------------------------|--------------------------|
||---0--0--0--7----7--7--7--|--7--7--7--7--7--7--7--7--|
                                                                                
-------------------------|--------------------------|
-------------------------|--------------------------|
-------------------------|--------------------------|
--0--0--0--7----7--7--7--|--7--7--7--7--7--7--7--7--|
                                                                          
------------------------|----------------------|
------------------------|----------------------|
------------------------|----------------------|
--0--0--0--3----3--3----|--3----3----3----3----|

------------------------|----------------------||
------------------------|---------------------*||
------------------------|---------------------*||
--0--0--0--5----5--5----|--5----5----5----5----||




------------------|----------------------|-----------------|----------------------|
------------------|----------------------|-----------------|----------------------|
------------------|----------------------|-----------------|----------------------|
--7-x-7-x-7-x-7-x-|--7-x-7-x-7--0--0--0--|-7-x-7-x-7-x-7-x-|--7-x-7-x-7--0--0--0--|
                                                                        
------------------|----------------------|----------------------|-------------------|
------------------|----------------------|----------------------|-------------------|
------------------|-------------3--5--5--|----------------------|-------------------|
--3-x-3-x-3-x-3-x-|--3-x-3-x-3-----------|--5----5--5---5---5---|--5---5---0--0--0--|

------------------|----------------------|-----------------|----------------------|
------------------|----------------------|-----------------|----------------------|
------------------|----------------------|-----------------|----------------------|
--7-x-7-x-7-x-7-x-|--7-x-7-x-7--0--0--0--|-7-x-7-x-7-x-7-x-|--7-x-7-x-7--0--0--0--|
                                                                        
------------------|----------------------|--------------------|-------------------|
------------------|----------------------|--------------------|-------------------|
------------------|-------------3--5--5--|--------------------|----------------3--|
--3-x-3-x-3-x-3-x-|--3-x-3-x-3-----------|--5---5--5---5---5--|--5---5---3--5-----|


  
                                                                        
outro                                                                             
-------------------|------------------|------------------|-------------------|
-------------------|------------------|------------------|-------------------|
-------------------|------------------|------------------|-------------------|
--7----------------|------------------|------------------|----------p-0------|
                                                                               
-------------------|-------------------|-------------------|-------------------|
-------------------|-------------------|-------------------|-------------------|
-------------------|-------------------|-------------------|-------------------|
-h-3---------------|----------p-0------|-h-5---------------|----------p-0------|
                    
-------------------||
-------------------||
-------------------||
--7----------------||
Comments