Thursday - Paris In Flames Chords & Tabs

 

Paris In Flames Chords & Tabs

Thursday Chords & Tabs

Version: 5 Type: Tab 0 ratings
1 star 2 stars 3 stars 4 stars 5 stars
comments

Paris In Flames Tab

here's a tab for both guitars if you want to play it with a band

Band-Thursday
Song-Paris In Flames
Album-Full Collapse

 
--> DROP D TUNING

       . = palm mute
       x = mute strings after playing the chord / scratch
       


 -> GUITAR 1



e|--------------------------------------------------------------|
B|-10-10-10--10--------------10-----8-8-8--8----9-9-9--8h10-8---|
G|-9--9--9------9--9--9--9------9---9-9-9----9--8-8-8---------9-|
D|-8--8--8---------8--8--8----------7-7-7-------7-7-7-----------| x2
A|-8--8--8---------8--8--8----------7-7-7-------7-7-7-----------|
D|-8--8--8---------8--8--8----------7-7-7-------7-7-7-----------|


(Listen to the song for a better idea of the rhythm...)

e|-------------------------------------------------------------
B|---------10--------10------10----------10---------10------10-
G|---------9---------9-------9-----------9----------9-------9--
D|-8-8---8-8--8-8--8-8---8-8-8---8-8---8-8---8-8--8-8---8-8-8--
A|-8-8---8-8--8-8--8-8---8-8-8---8-8---8-8---8-8--8-8---8-8-8--
D|-8-8---8-8--8-8--8-8---8-8-8---8-8---8-8---8-8--8-8---8-8-8--
   . .   .    . .  .     . .     . .   .     . .  .     . .

-------------------------------------------------------|
---------8---------8------8---------8---------8------8-|
---------9---------9------9---------9---------9------9-|
--7-7-7--7--7-7--7-7--7-7-7--7-7--7-7--7-7--7-7--7-7-7-| x2
--7-7-7--7--7-7--7-7--7-7-7--7-7--7-7--7-7--7-7--7-7-7-|
--7-7-7--7--7-7--7-7--7-7-7--7-7--7-7--7-7--7-7--7-7-7-|
  . . .     . .  .    . .    . .  .    . .  .    . .


e|------------------------------------------------------|
B|------------------------------------------------------|
G|------------------------------------------------------|
D|-8--8--8-8--8-7x-7x-7x-7----0--0--------------------7-| x4
A|-8--8--8-8--8-7x-7x-7x-7----0--0------7---------7h8---|
D|-8--8--8-8--8-7x-7x-7x-7----0--0--7h8-----0-7h8-------|


e|-------------------------------------------------|
B|-----10-------------8--------------------8-------|
G|--------10---10-------9---9----------------9---9-|
D|-8-8-------8----7-7-----7---33333333-7-7-----7---|
A|-8--------------7-----------33333333-7-----------|
D|-8--------------7-----------33333333-7-----------|


e|----------------------------------------|
B|-----10-------------8-------------------|
G|--------10---10-------9---9-------------|
D|-8-8-------8----7-7-----7---33333333--0-|
A|-8--------------7-----------33333333--0-|
D|-8--------------7-----------33333333--0-|


(Play as octaves... Listen to the song for the rhythm)

e|-------------------------------|
B|-------------------------------|
G|-15---14--17--10----9---12--11-|
D|-------------------------------| x2
A|-13---12--15--8-----7---10--9--|
D|-------------------------------|


Here in this collapsed lung of a borough there is no sunlight...
(Octaves again... listen to song for rhythm...)

e|-----------------------|
B|-----------------------|
G|-10----9----5----4---7-|
D|-----------------------|
A|-8-----7----3----2---5-|
D|-----------------------|


We all sing the songs of separation...

e|-------------------------------------------------|
B|-----10-------------8--------------------8-------|
G|--------10---10-------9---9----------------9---9-|
D|-8-8-------8----7-7-----7---33333333-7-7-----7---|
A|-8--------------7-----------33333333-7-----------|
D|-8--------------7-----------33333333-7-----------|


e|--------------------------------------------------------------|
B|-----10-------------8-----------------------------------------|
G|--------10---10-------9---9-----------------------------------|
D|-8-8-------8----7-7-----7---33333333--0-0-------------------7-|
A|-8--------------7-----------33333333--0-0------7--------7h8---|
D|-8--------------7-----------33333333--0-0--7h8----0-7h8-------|


e|-------------------------------------------------------------
B|---------10--------10------10----------10---------10------10-
G|---------9---------9-------9-----------9----------9-------9--
D|-8-8---8-8--8-8--8-8---8-8-8---8-8---8-8---8-8--8-8---8-8-8--
A|-8-8---8-8--8-8--8-8---8-8-8---8-8---8-8---8-8--8-8---8-8-8--
D|-8-8---8-8--8-8--8-8---8-8-8---8-8---8-8---8-8--8-8---8-8-8--
---. .   .    . .  .     . .     . .   .     . .  .     . .

-------------------------------------------------------|
---------8---------8------8---------8---------8------8-|
---------9---------9------9---------9---------9------9-|
--7-7-7--7--7-7--7-7--7-7-7--7-7--7-7--7-7--7-7--7-7-7-|
--7-7-7--7--7-7--7-7--7-7-7--7-7--7-7--7-7--7-7--7-7-7-|
--7-7-7--7--7-7--7-7--7-7-7--7-7--7-7--7-7--7-7--7-7-7-|
--. . .     . .  .    . .    . .  .    . .  .    . .


(Palm mute the whole way through here...)

e|-----------------------------------------------------|
B|-----------------------------------------------------|
G|-----------------------------------------------------|
D|--8-8-8---8-8----8-8---8-8----7-7---7-7----7-7---7-7-|
A|--8-8-8---8-8----8-8---8-8----7-7---7-7----7-7---7-7-|
D|--8-8-8---8-8----8-8---8-8----7-7---7-7----7-7---7-7-|


e|-10-10-------10-10--12--10--------15---15--13--12---12--12/13-12-|
B|-10-10--10---10-10-----------13---13-----------------------------|
G|--------10-------------------12----------------------------------|
D|-----------------------------------------------------------------|
A|-----------------------------------------------------------------|
D|-----------------------------------------------------------------|


Bass part...

e|---------------------------------------------------------------------|
B|---------------------------------------------------------------------|
G|---------------------------------------------------------------------|
D|---------------------------------------------------------------------|
A|---------------------8--7-7/8\7---3--3-3--3-3---2--2-2--2-2----------|
D|-0-0-8-8-0---0-0-8-8------------------------------------------5--5-5-|


The lower east side is a jukebox playing the deadman's crescendo...

e|--------------------|
B|--------------------|
G|-10---9---7--5---12-|
D|--------------------|
A|-8----7---5--3---10-|
D|--------------------|


(try to listen to the song for the rhythm for this part...)

e|------------------------------------------------|
B|------------------------------------------------|
G|-7----9-----5-----7-----7-----9-----5-----4---7-|
D|------------------------------------------------|
A|-5----7-----3-----5-----5-----7-----3-----2---5-|
D|------------------------------------------------|

[ Tab from: http://www.guitartabs.cc/tabs/t/thursday/paris_in_flames_tab_ver_5.html ]
(Listen for rhythm!!)

e|------------------------------------------------|
B|------------------------------------------------|
G|-x-x---x-7--x-x--x-7--x-x-7---9---12--\5---4--7-|
D|------------------------------------------------|
A|-x-x---x-5--x-x--x-5--x-x-5---7---10--\3---2--5-|
D|------------------------------------------------|


(listen to the song for rhythm..)

e|---------------------------------------------------------|
B|-10--8---5---6---10--8---5-------------------------------|
G|-9---9---5---7---8---9---5-------------------------------|
D|-8---7---3---5---8---7---3-----0--0--------------------7-|
A|-8---7---3---5---8---7---3-----0--0------7---------7h8---|
D|-8---7---3---5---8---7---3-----0--0--7h8-----0-7h8-------|


    -->End of guitar 1!




 -> GUITAR 2



e|--------10---------10----------------------------|
B|-----------10---------10---------8-----------8---|
G|-----------------------------------9-----------9-|
D|-8-8-8---------8-8-8------7-7-7-------7-7-7------| x2
A|-8-8-8---------8-8-8------7-7-7-------7-7-7------|
D|-8-8-8---------8-8-8------7-7-7-------7-7-7------|


(Listen to the song for a better idea of the rhythm...)

e|-------------------------------------------------------------
B|---------10--------10------10----------10---------10------10-
G|---------9---------9-------9-----------9----------9-------9--
D|-8-8---8-8--8-8--8-8---8-8-8---8-8---8-8---8-8--8-8---8-8-8--
A|-8-8---8-8--8-8--8-8---8-8-8---8-8---8-8---8-8--8-8---8-8-8--
D|-8-8---8-8--8-8--8-8---8-8-8---8-8---8-8---8-8--8-8---8-8-8--
---. .   .    . .  .     . .     . .   .     . .  .     . .

-------------------------------------------------------|
---------8---------8------8---------8---------8------8-|
---------9---------9------9---------9---------9------9-|
--7-7-7--7--7-7--7-7--7-7-7--7-7--7-7--7-7--7-7--7-7-7-| x2
--7-7-7--7--7-7--7-7--7-7-7--7-7--7-7--7-7--7-7--7-7-7-|
--7-7-7--7--7-7--7-7--7-7-7--7-7--7-7--7-7--7-7--7-7-7-|
--. . .     . .  .    . .    . .  .    . .  .    . .


e|------------------------------------------------------|
B|------------------------------------------------------|
G|------------------------------------------------------|
D|-8--8--8-8--8-7x-7x-7x-7----0--0--------------------7-| x4
A|-8--8--8-8--8-7x-7x-7x-7----0--0------7---------7h8---|
D|-8--8--8-8--8-7x-7x-7x-7----0--0--7h8-----0-7h8-------|
                         

We all sing the songs of separation...
(Listen to the song to get the rhythm!!)

e|-------------------------------|
B|-------------------------------|
G|-------------------------------|
D|-8---7---3---5---8---7---3---0-|
A|-8---7---3---5---8---7---3---0-|
D|-8---7---3---5---8---7---3---0-|


Rain, rain down...
(play these as octaves. Again... Listen to the song for the rhythm...)

e|----------------|
B|----------------|
G|-10---9---5---4-|
D|----------------|
A|-8----7---3---2-|
D|----------------|


Here in this collapsed lung of a borough there is no sunlight...

e|------------------|
B|------------------|
G|-12h14------------|
D|-------12h14---12-| x7
A|-------------12---|
D|------------------|


(listen to the song for rhythm..)

e|---------------------------------------------------------|
B|---------------------------------------------------------|
G|---------------------------------------------------------|
D|-8---7---3---5---8---7---3-----0--0--------------------7-|
A|-8---7---3---5---8---7---3-----0--0------7---------7h8---|
D|-8---7---3---5---8---7---3-----0--0--7h8-----0-7h8-------|


e|-------------------------------------------------------------
B|---------10--------10------10----------10---------10------10-
G|---------9---------9-------9-----------9----------9-------9--
D|-8-8---8-8--8-8--8-8---8-8-8---8-8---8-8---8-8--8-8---8-8-8--
A|-8-8---8-8--8-8--8-8---8-8-8---8-8---8-8---8-8--8-8---8-8-8--
D|-8-8---8-8--8-8--8-8---8-8-8---8-8---8-8---8-8--8-8---8-8-8--
---. .   .    . .  .     . .     . .   .     . .  .     . .

-------------------------------------------------------|
---------8---------8------8---------8---------8------8-|
---------9---------9------9---------9---------9------9-|
--7-7-7--7--7-7--7-7--7-7-7--7-7--7-7--7-7--7-7--7-7-7-|
--7-7-7--7--7-7--7-7--7-7-7--7-7--7-7--7-7--7-7--7-7-7-|
--7-7-7--7--7-7--7-7--7-7-7--7-7--7-7--7-7--7-7--7-7-7-|
--. . .     . .  .    . .    . .  .    . .  .    . .


(Palm mute the whole way through here...)

e|-----------------------------------------------------|
B|-----------------------------------------------------|
G|-----------------------------------------------------|
D|--8-8-8---8-8----8-8---8-8----7-7---7-7----7-7---7-7-|
A|--8-8-8---8-8----8-8---8-8----7-7---7-7----7-7---7-7-|
D|--8-8-8---8-8----8-8---8-8----7-7---7-7----7-7---7-7-|


e|-10-10-------10-10--12--10--------15---15--13--12---12--12/13-12-|
B|-10-10--10---10-10-----------13---13-----------------------------|
G|--------10-------------------12----------------------------------|
D|-----------------------------------------------------------------|
A|-----------------------------------------------------------------|
D|-----------------------------------------------------------------|


Bass part...

e|---------------------------------------------------------------------|
B|---------------------------------------------------------------------|
G|---------------------------------------------------------------------|
D|---------------------------------------------------------------------|
A|---------------------8--7-7/8\7---3--3-3--3-3---2--2-2--2-2----------|
D|-0-0-8-8-0---0-0-8-8------------------------------------------5--5-5-|


The lower east side is a jukebox playing the deadman's crescendo...

e|--------------------|
B|--------------------|
G|-10---9---7--5---12-|
D|--------------------|
A|-8----7---5--3---10-|
D|--------------------|


... a dimly lit hallway where the shadows of moths decorate the walls...

e|------------------|
B|------------------|
G|-12h14------------|
D|-------12h14---12-| x37 (or just play it a lot)
A|-------------12---|
D|------------------|


(Yeah, listen to the song for rhythm...)

e|---------------------------------------------------------|
B|---------------------------------------------------------|
G|---------------------------------------------------------|
D|-8---7---3---5---8---7---3-----0--0--------------------7-|
A|-8---7---3---5---8---7---3-----0--0------7---------7h8---|
D|-8---7---3---5---8---7---3-----0--0--7h8-----0-7h8-------|


Well that's the whole song on both guitars! Enjoy!!
Comments