Thursday - Paris In Flames Chords & Tabs

 

Paris In Flames Chords & Tabs

Thursday Chords & Tabs

Version: 3 Type: Tab 0 ratings
1 star 2 stars 3 stars 4 stars 5 stars
comments

Paris In Flames Tab

   
Thursday
Paris in Flames
tabbed by:warlock 225 (aka jua)
Dropped D

This is a great song from an amazing band, if you ever get the chance to see
them live in concert, dont pass it up they are absolutely amazing live.

intro
|--------------------------------------------------|
|--------10--------10----------9---------9---------|
|-----------10--------10---------9---------9h10----|
|--------------------------------------------------|
|--8-8-8------8-8-8------7-7-7-----7-7-7----------|
|--8-8-8-----8-8-8------7-7-7------7-7-7----------|
[ Tab from: http://www.guitartabs.cc/tabs/t/thursday/paris_in_flames_tab_ver_3.html ]
|--------------------------------|
|--------------------------------|
|--------------------------------|
|--------------------------------|  repeat this a bunch of times
|-8-8-8-7-7-7-8-8-8-7-7-7-8-8-8-|
|-8-8-8-7-7-7-8-8-87-7-7-8-8-8--|

chorus
|------------------------------------------|
|------------------------------------------|
|-----------------------------------0-2----|
|-----------------------0-2---0-2-3--------|
|-8-8-8-7-7-7--3----1-3----3--------------|
|-8-8-8-7-7-7--3--------------------------|

most of this song is played off of four chords
|----------------------------|
|----------------------------|
|----------------------------|
|---8-----7-----3-----2------|
|---8-----7-----3-----0-----|
|---8-----7----3-----0------|

thats all i know you should be able to figure out the rest
all aboard the jua train
wooo  woooo
Comments