Thursday - Paris In Flames Chords & Tabs

 

Paris In Flames Chords & Tabs

Thursday Chords & Tabs

Version: 2 Type: Tab 0 ratings
1 star 2 stars 3 stars 4 stars 5 stars
comments

Paris In Flames Tab

----------------------------------------------------------------------
			     Paris in Flames - Thursday
----------------------------------------------------------------------

By:Fender86 My first tab by-the-way.

This tab of Thursdays "Paris in Flames" is the 7th track to Full 
Collapse. It is played in drop D.
			Intro
[ Tab from: http://www.guitartabs.cc/tabs/t/thursday/paris_in_flames_tab_ver_2.html ]
e|-------10-----10----------------------------------------------------
B|---------10-----10------8-------8-10-8------------------------------
G|-------------------------9------------9-----------------------------
D|--8-8-8--8-8-8---7-7-7---7-7-7-----------2x--2nd time, no 8-10-8,-9-
A|--8-8-8--8-8-8---7-7-7---7-7-7--------------------------------------
D|--8-8-8--8-8-8---7-7-7---7-7-7--------------------------------------
				verse 2x
e|-------------10-----------------------------------------------------
B|-------10--------10----10----10--10---8-----8--8----8----8---8------
G|--------------------------------------------------------------------
D|-888-----88-8--88--88-8--88-8--88--777--77-7-77-77-7-77-7-77--------
A|-888-----88-8--88--88-8--88-8--88--777--77-7-77-77-7-77-7-77--------
D|-888-----88-8--88--88-8--88-8--88--777--77-7-77-77-7-77-7-77--------
			Pre Chorus "Still you wont let go..." 4x
e|--------------------------------------------------------------------
B|--------------------------------------------------------------------
G|--------------------------------------------------------------------
D|-88888-7-7-7-7-0------------7---------------------------------------
A|-88888-7-7-7-7-0----7----5-7----------------------------------------
D|-88888-7-7-7-7-0-5-7--5-7-------------------------------------------
Chorus (the 10 is a ten, not one, zero)figure out strumming. 
"we are singing the songs of seperation..." "its gonna rain rain down"
e|--------------------------------------------------------------------
B|--------------------------------------------------------------------
G|-10-9--5-2----------------------------------------------------------
D|-8--7--3-0----------------------------------------------------------
A|-8--7--3-0----------------------------------------------------------
D|-8--7--3-0----------------------------------------------------------
Bridge A "Here in this collapse..." ten and twelve, not 1,2 or 1,0
e|--------------------------------------------------------------------
B|------10------------------------------------------------------------
G|---12----12----9-9--------------------------------------------------
D|--------------------12----------------------------------------------
A|--------------------------------------------------------------------
D|--------------------------------------------------------------------
	       bridge B, leads into solo
e|--------------------------------------------------------------------
B|--------------------------------------------------------------------
G|--------------------------------------------------------------------
D|--888-88-88-88-77-77-77-77------------------------------------------
A|--888-88-88-88-77-77-77-77------------------------------------------
D|--888-88-88-88-77-77-77-77------------------------------------------
			Solo. again, double digits
e|--------------13--10-----15-15-13-12-12h13h12-----------------------
B|---10------10---------13--------------------------------------------
G|------10------------------------------------------------------------
D|--------------------------------------------------------------------
A|--------------------------------------------------------------------
E|--------------------------------------------------------------------
Pre Bridge A. Hold notes		end on this:
e|-------------------------------|------------------------------------
B|-------------------------------|------------------------------------
G|-------------------------------|------------------------------------
D|-------------------------------|----0--------------7----------------
A|---8---7--------10-------------|----0-----7----5-7------------------
D|------------10-----------------|----0-5-7---5-7---------------------

======================================================================
Comments