Thursday - Paris In Flames Chords & Tabs

 

Paris In Flames Chords & Tabs

Thursday Chords & Tabs

Version: 1 Type: Tab 0 ratings
1 star 2 stars 3 stars 4 stars 5 stars
comments

Paris In Flames Tab

drod d                                     questions dadio3164@aol.com

Riff 1 x2 (intro)0:00   Now it’s time…  
|----------------------------|----------------|
|-10---10---10-----10--------|-10---10---10---|
|-10---10---10---------10----|-10---10---10---|
|--8----8----8---------------|--8----8----8---|
|--8----8----8---------------|--8----8----8---|
|--8----8----8---------------|--8----8----8---|

|----------------------------- -|-----------------------| 
|-10--------8---8---8---8----- |-8---8---8---8h==9-8- - |
|-----10----9---9---9------9- -|-9---9---9-----------9--|
|-----------7---7---7----------|-7---7---7--------------|
|-----------7---7---7----------|-7---7---7--------------|
|-----------7---7---7----------|-7---7---7--------------|
[ Tab from: http://www.guitartabs.cc/tabs/t/thursday/paris_in_flames_tab.html ]
Verse: 0:22  And on the first day…  
|-------------------------------------|
|-------------------------------------|
|----------10-----------12--------10--|
|-8--8--8------8--8--8----------------|
|-8--8--8---8--8--8--8--10--8--8---8--|
|-8--8--8------8--8--8------8--8------|

|--------------|--------------|-----------|
|--------------|--------------|-----------|
|----------10--|----------12--|-------10--|
|-8--8--8------|-8--8--8------|-----------|
|-8--8--8---8--|-8--8--8--10--|-8--8---8--|
|-8--8--8------|-8--8--8------|-8--8------|


6x
--------------------------------------
---------------------------------------
----------9-------------------------
--7-7-7------------------------------
--7-7-7--7-----------------------------
--7-7-7-------------------------------


still you wont let go
----------------------------------------------------------
----------------------------------------------------------
---------------------------------------------------------
-8-8-8-8-7-7-7-7-0-0-------------------7---------------
-8-8-8-8-7-7-7-7-0-0-----7--------7-8-------------------
-8-8-8-8-7-7-7-7-0-0-7-8---0-7-8-----------------------
Comments