Thursday - Mass As Shadows Chords & Tabs

 

Mass As Shadows Chords & Tabs

Thursday Chords & Tabs

Version: 1 Type: Tab 0 ratings
1 star 2 stars 3 stars 4 stars 5 stars
comments

Mass As Shadows Tab

Thursday-(best band ever)
Mass As Shadows-(...as much as I could.)
This song is unreleased except for on a benefit CD, however this is the version on 
demo tape.

Tabbed by Alex Olson, 3.18.05

Drop D like all Thursday songs.

"main part"(1:29),(2:45)
repeated as many times as it is.
e|------------------------------3------|
b|---------------------------------3---|
g|------------------------------------2|
d|5-5-5-5-5-5/4-4-4-4-4-4/2------------|
a|5-5-5-5-5-5/4-4-4-4-4-4/2------------|
d|5-5-5-5-5-5/4-4-4-4-4-4/2------------|
For this you can figure out when to stop with the 3s, etc. I only gave you the basic idea.

"ending"(3:10) for the other times, don't play 2nd 7 on b in a row.
e|(7)---(7)-----------------------|
b|---(7)---(7)(7)---(7)---(7)-----|
g|----------------(7)---(7)---(7)-|
d|--------------------------------|
a|--------------------------------|
d|--------------------------------|
[ Tab from: http://www.guitartabs.cc/tabs/t/thursday/mass_as_shadows_tab.html ]
(3:22) play once
e|--------(7)(7)(7)(7)(7)(7)--------(7)(7)(7)(7)(5)|
b|--------(7)(7)(7)(7)(7)(7)--------(7)(7)(7)(7)(5)|
g|--------(7)(7)(7)(7)(7)(7)--------(7)(7)(7)(7)(5)|
d|55555---------------------22222------------------|
a|55555---------------------22222------------------|
d|55555---------------------22222------------------|

play all other times
e|--------(7)(7)(7)(7)(7)(7)--------(7)(7)(7)(7)(7)(7)|
b|--------(7)(7)(7)(7)(7)(7)--------(7)(7)(7)(7)(7)(7)|
g|--------(7)(7)(7)(7)(7)(7)--------(7)(7)(7)(7)(7)(7)|
d|55555---------------------22222---------------------|
a|55555---------------------22222---------------------|
d|55555---------------------22222---------------------|

(4:01)
e|--------------------------3|
b|---------------------------|
g|---------------------------|
d|5-5-5-5-5-5/4-4-4-4-4-4/2--|
a|5-5-5-5-5-5/4-4-4-4-4-4/2--|
d|5-5-5-5-5-5/4-4-4-4-4-4/2--|

end.

key:
(n)=natural harmonics
/=slide

Hope this helps you and I am sorry for not doing the whole song, however I did what I 
and figured that it could help someone. Any questions e-mail me at RatKingIII@hotmail.com
Comments