Thursday - M Shepard Chords & Tabs

 

M Shepard Chords & Tabs

Thursday Chords & Tabs

Version: 1 Type: Bass Tab 0 ratings
1 star 2 stars 3 stars 4 stars 5 stars
comments

M Shepard Bass Tab

   
G ------------------------------------------------|
D ------------------------------------------------|
A ---------------------3333333333333333333333-----|
E 0-0-0-0-00-0-0-0-0-00---------------------------|    x2


Verse:

G --------------------|
D --------------------|
A -------33330000-----|
E 0~2~3~--------------|    x4

Chorus:

G ----------------------------------------|
D ----------------------------------------|
A ----------------3333333333333333--------|
E 0000000022222222------------------------|       x4

2nd time you repeat the chorus add this at the end: A 00003333

verse x4

bridge:
G ----
D ----
A ----
E 0-00 x4
[ Tab from: http://www.guitartabs.cc/tabs/t/thursday/m_shepard_btab.html ]
G --------|
D --------|
A 33330000
E --------

Chorus(play it exactly the same as the first time)

Then:

G ----------------------------------------------|
D ----------------------------------------------|
A ---------------------3-3-3-3-33-3-3-3-3-33----|
E 0-0-0-0-00-0-0-0-0-00---------------------0-0-|

(no bass until 3:15)
G --------------------------------|
D --------------------------------|
A 33333333333333333333333333333333
E --------------------------------

G -------------------------------|
D -------------------------------|
A -----------3333333333333333----|
E 00-00-00-00--------------------|   x2

G ------------|
D ------------|
A ------------|
E 00-00-00-00-|
Comments