Thursday - Jet Black New Year Chords & Tabs

 

Jet Black New Year Chords & Tabs

Thursday Chords & Tabs

Version: 1 Type: Bass Tab 0 ratings
1 star 2 stars 3 stars 4 stars 5 stars
comments

Jet Black New Year Bass Tab

Intro 
G|------------------------| 
D|------------------------| 
A|------------------------| 
D|--0/12--0----------12/0-| 

Riff 1 
G|----------------------------------------------------------------------------| 
D|----------------------------------------------------------------------------| 
A|------55------5-5/12------55-------5-5/15----55-------5-5/12----------------| 
E|--00-----0000--0------00-----0000--0------00----0000--0------8-7-87--00-0--0| 

riff 2 
G|-------------------------------------------------------------------| 
D|-------------------------------------------------------5h7---------| 
A|--55-5-555-5-5-11-1-111-1-1-3-------3---------5h7---5h7---5h7------| 
E|-----------------------------0--0-0--0--0-0------5h7---------5h7---| 

transition 
G|-------------------| 
D|-------------------| 
A|-5-7-8-10-12-------| 
E|-------------------| 
[ Tab from: http://www.guitartabs.cc/tabs/t/thursday/jet_black_new_year_btab.html ]
Riff 3 (listen for rythm) 
G|---------------------------| 
D|---------------------------| 
A|---------------------------| 
E|--0------7-------8------10-| 

riff 4(again listen for the rythm and there are little fills in there 
G|---------------------------------------------------------------------------| 
D|---------------------------------------------------------------------------| 
A|---------------------------------------------------------------------------| 
E|--00--00---00---00--00-00---0-0-0-00---------------------------------------| 

riff 5 
G|---------------------------------------| 
D|---------------------------------------| 
A|-5-----5-----5---5-----5-----5---------| 
E|---000---000---00--000---000---000-----| 

riff 6 
G|-------------| 
D|-------------| 
A|-------------| 
E|-0-----10h12-| 

riff 7 
G|----------------------------------------------------------| 
D|----------------------------------------------------------| 
A|----------------------------------------------------------| 
E|-000-000-00-000-000-00-0(mute the string after you hit it)|
Comments