Thursday - Ian Curtis Chords & Tabs

 

Ian Curtis Chords & Tabs

Thursday Chords & Tabs

Version: 1 Type: Tab 0 ratings
1 star 2 stars 3 stars 4 stars 5 stars
comments

Ian Curtis Tab

   
 Thursday- Ian Curtis Tab
 
 off of the album 'waiting'

 Tabbed by Alex Olson.

Tuned to dropped-d tuning if you don't know how that is tuned it is labeled throughout
the tab. Tabbed for only one guitar.. I tried to accompany both guitars in one so I hope
you enjoy.


 e|--------------------------------------------|
 b|--------------------------------------------|
 g|-9999999999999999998888h99999999999966667777|
 d|-7777777777777777776666-77777777777744445555|
 a|--------------------------------------------|
 d|--------------------------------------------|
      0:00-0:07

 e|------------------------| x2
 b|------------------------|
 g|-9999999999999999998888-|
 d|-7777777777777777776666-|
 a|------------------------|
 d|------------------------|
  0:07-0:14

 e|----------------------| x1
 b|----------------------|
 g|-99999999999966666666-|
 d|-77777777777744444444-|
 a|----------------------|
 d|----------------------|
      0:14-0:17

 e|----------------------| x3
 b|----------------------|
 g|-99999999999966667777-|
 d|-77777777777744445555-|
 a|----------------------|
 d|----------------------|
     0:17-0:29

 e|----------| x3
 b|----------|
 g|-66667777-|
 d|-44445555-|
 a|----------|
 d|----------|
    0:29-0:35
[ Tab from: http://www.guitartabs.cc/tabs/t/thursday/ian_curtis_tab.html ]
 e|----------------------| x6
 b|----------------------|
 g|-99999999999966667777-|
 d|-77777777777744445555-|
 a|----------------------|
 d|----------------------|
     0:35-0:57

 e|----------| x3
 b|----------|
 g|-66667777-|
 d|-44445555-|
 a|----------|
 d|----------|
    0:57-1:02
 P.M....    ....
 e|-----------------| x3
 b|------4-------5--|
 g|-------4-------5-|
 d|-2222----3333----|
 a|-2222----3333----|
 d|-2222----3333----|
    1:03-1:13
 P.M....    ........
 e|------------------|
 b|------4-----------|
 g|-------4----------|
 d|-2222----33333333-|
 a|-2222----33333333-|
 d|-2222----33333333-|
    1:14-1:17



-------"We heard Ian Curtis kill himself again, in your bed" part---------

 ||||||bass solo with light guitar that I can't hear well enough to tab out||||||
     1:18-1:59

 clean

 e|---|
 b|-5-|
 g|-4-|
 d|-2-|
 a|---|
 d|---|
    2:00

 clean

 e|--------------------| x8
 b|---5-5-5-5-4-4-4-4--|
 g|--4-4-4-4---4-4-4-4-|
 d|-2------------------|
 a|--------------------|
 d|--------------------|
    2:06-2:30





 back on distortion

 e|-----------------| x12
 b|-----------------|
 g|-----------------|
 d|-7777-2~-3333333-|
 a|-7777-2~-3333333-|
 d|-7777-2~-3333333-|
    2:31-end

 ________________
 |     Key:     |
 |              |
 |~   let ring  |
 |h   hammer-on |
 |P.M palm mute |
 ----------------






This was my first -full- tab, I tabbed out some of Mass As Shadows, I hope they both
help you out. If you want to talk about Thursday, this tab, or anything,
feel free to e-mail me at RatKingIII@hotmail.com    
    -Alex Olson
Comments