Thursday - I Am The Killer Chords & Tabs

 

I Am The Killer Chords & Tabs

Thursday Chords & Tabs

Version: 1 Type: Tab 0 ratings
1 star 2 stars 3 stars 4 stars 5 stars
comments

I Am The Killer Tab

   
Tuning: Drop D: DADGBe

~ let ring
x mute 

Intro: 3x

e|--------------3---|
B|--5-(5)-----------|
G|--x--x------------|
D|--0--0--2-2-3-----|
A|--0--0------------|
E|--0--0------------|
Bend (5) the second time you play the intro

Pre Verse: 1x

e|----------------------|
B|--5-(5)---------------|
G|--x--x----------------|
D|--0--0--2222--3333----|
A|--0--0--2222--3333----|
E|--0--0--2222--3333----|
Bend (5)

Verse 2x

e|--------------------------------------------------------|
B|-------666-555-666-555------------666-55-8888888--------|
G|-------777-777-777-777------------777-77-7777777--------|
D|--000-------------------8-----00------------------8-----|
A|--000-------------------8-----00------------------8-----|
E|--000-------------------8-----00------------------8-----|

Intro again: 4x

e|--------------3-----|
B|--5-(5)-------------|
G|--x--x--------------|
D|--0--0--2-2-3-------|
A|--0--0--------------|
E|--0--0--------------|
Bend (5) on the 2nd and 4th time

Pre Chorus: 1x

e|----------------------------|
B|----------------------------|
G|--7--6--7--6--12--6--7~-----|
D|--x--x--x--x---x--x--x------|
A|--5--4--5--4--10--4--5~-----|
E|----------------------------|

Chorus: 4x   

e|------------------------|
B|------------------------|
G|------------------------|
D|--0--3--0--8--33--8-----|
A|--0--3--0--8--33--8-----|
E|--0--3--0--8--33--8-----|

Verse again: 2x
[ Tab from: http://www.guitartabs.cc/tabs/t/thursday/i_am_the_killer_tab.html ]
e|--------------------------------------------------------|
B|-------666-555-666-555------------666-55-8888888--------|
G|-------777-777-777-777------------777-77-7777777--------|
D|--000-------------------8-----00------------------8-----|
A|--000-------------------8-----00------------------8-----|
E|--000-------------------8-----00------------------8-----|

Chorus again: 6x

e|------------------------|
B|------------------------|
G|------------------------|
D|--0--3--0--8--33--8-----|
A|--0--3--0--8--33--8-----|
E|--0--3--0--8--33--8-----|

Fill A: 1x

e|---------------------|
B|---------------------|
G|---------------------|
D|--0~--0~--0~--0~-----|
A|--0~--0~--0~--0~-----|
E|--0~--0~--0~--0~-----|

Interlude: 4x

e|-------------------------------|
B|-------------------------------|
G|-10---------10--9--7--7--------|
D|---10----0---0--0--0--8--0-----|
A|-----10--0---------------0-----|
E|---------0---------------0-----|
This part is tricky, but if you listen, guitar one and two go back and forth
after the first time.

Fill B: 4x after bass. Listen to know when to start.

e|-----------------------|
B|-----------------------|
G|-----------------------|
D|--0--0--3333--8888-----|
A|--0--0--3333--8888-----|
E|--0--0--3333--8888-----|

Fill C: 2x right after Fill B

e|--------------------------|
B|--------------------------|
G|--------------------------|
D|--0-0-00-00--333--888-----|
A|--0-0-00-00--333--888-----|
E|--0-0-00-00--333--888-----|

Then back to this familiar riff: 4x

e|--------------3-----|
B|--5-(5)-------------|
G|--x--x--------------|
D|--0--0--2-2-3-------|
A|--0--0--------------|
E|--0--0--------------|
Bend (5) on the 2nd and 4th time

Outro: 1x

e|-----------------------------|
B|-----------------------------|
G|-----------------------------|
D|--00--0--0--00--0--0--00-----|
A|--00--0--0--00--0--0--00-----|
E|--00--0--0--00--0--0--00-----|

That's it.
Comments