Thursday - I1100 Chords & Tabs

 

I1100 Chords & Tabs

Thursday Chords & Tabs

Version: 1 Type: Tab 0 ratings
1 star 2 stars 3 stars 4 stars 5 stars
comments

I1100 Tab

-------------------------------------------------------------------------------
			     Thursday - I1100
-------------------------------------------------------------------------------

Tabbed by:  Greg Wiseman (gdw6813@yahoo.com)

Drop D tuning (DADGBe)
(I guess it could be in standard EADGBe if you wanted since the top string isn't used.
I just put it this way since most Thursday songs are in Drop D.)

* = Let ring
p = Pull-off


=Guitar 1=
e|----------12--------------------------12-----------------|
B|-12-------12---13-------12---12-------12---13-------12---|
G|-12------------12-------12---12------------12-------12---|
D|---------------------------------------------------------|\
A|---------------------------------------------------------| \
D|---------------------------------------------------------|  \

							     Repeat 4x
=Guitar 2=
e|---------------------------------------------------------|  /
B|---------------------------------------------------------| /
G|----9p7-9----7----5p4-5----4----9p7-9----7----5p4-5----4-|/
D|---------------------------------------------------------|
A|---------------------------------------------------------|
D|---------------------------------------------------------|



=Guitar 1=
e|-------------------------------------------------------|
B|------------------------------------------------12-----|
G|----------12-------12-------12--------14p12-12------12-|
D|-------------------------------------------------------|\
A|-------------------------------------------------------| \
D|-------------------------------------------------------|  \
=Guitar 2=						      \ 	
e|-------------------------------------------------------|
B|-------------------------------------------------------|
G|--9--9--9--9--9--9--9--9--9--9--9--9--777777777777-----|
D|-10-10-10-10-10-10-10-10-10-10-10-10--999999999999-----|
A|-------------------------------------------------------|
D|-------------------------------------------------------|
[ Tab from: http://www.guitartabs.cc/tabs/t/thursday/i1100_tab.html ]
					Repeat 3x, last time add part in ()
=Guitar 1=
e|-----------------------15p12------13p12----------------|
B|-15p12------13p12-------------12-(13p12)-13p12-13p12---|
G|--------12---------12----------------------------------|
D|-------------------------------------------------------|
A|-------------------------------------------------------|
D|-------------------------------------------------------|
							      /
=Guitar 2=						     /
e|-------------------------------------------------------|  /
B|-------------------------------------------------------| /
G|-555555-----444444-----222222222222--------------------|/
D|-777777-----555555-----444444444444--------------------|
A|-------------------------------------------------------|
D|-------------------------------------------------------|



=Guitar 1=
e|--------------------------------------------------------|
B|-------------------------------------------------12-----|
G|----------12-------12-------12--------14p12--12------12-|
D|--------------------------------------------------------|
A|--------------------------------------------------------|
D|--------------------------------------------------------|

=Guitar 2=
e|--------------------------------------------------------|
B|--------------------------------------------------------|
G|--9--9--9--9--9--9--9--9--9--9--9--9--777777777777------|
D|-10-10-10-10-10-10-10-10-10-10-10-10--999999999999------|
A|--------------------------------------------------------|
D|--------------------------------------------------------|



=Guitar 1=
e|-----------------------15p12*-|
B|-15p12------13p12------12****-|
G|--------12---------12---------|
D|------------------------------|
A|------------------------------|
D|------------------------------|

=Guitar 2=
e|------------------------------|
B|------------------------------|
G|-555555-----444444-----2*-----|
D|-777777-----555555-----4*-----|
A|------------------------------|
D|------------------------------|



Lyrics
------

"We'll all look the same someday, and even now the robot starts to think.  I wonder what
it dreams.  The tide is high on Fourteenth Street.  The rain comes in to clear the heat.
 The way in is the same way out.  The way up is the same way down.  Now there is no safe
way down."



Notes:  Consult actual song for rhythm/timing/strumming pattern.  Guitar 2 is very faint
and was hard to distinguish.  If you know something better for this part, feel free to
tell me.  Email me if you have any questions/comments (gdw6813@yahoo.com).
Comments