Thursday - For The Workforce Drowning Chords & Tabs

 

For The Workforce Drowning Chords & Tabs

Thursday Chords & Tabs

Version: 1 Type: Bass Tab 0 ratings
1 star 2 stars 3 stars 4 stars 5 stars
comments

For The Workforce Drowning Bass Tab

Here ya go.

Intro
G|----------------------------------------------------
D|----------------------------------------------------
A|--------5-5-5--------5-5-5-------5-5-5-------5-5-5--
D|--0-0-0-------0-0-0--------0-0-0-------0-0-0-------0


Verse 1
G|----------------------------------------------------
D|----------------------------------------------------
A|--------8---10-10-10--------------------------------
D|--8-8-8---8----------10-10-10-0---------------------


Chorus 1
G|----------------------------------------------------
D|----------------------------------------------------
A|-------5-5-5-------5-5-5----------------------------
D|-0-0-0-------0-0-0-------8-8-8-8-8-8-8-8-10-10-10-10

G|----------------------------------------------------
D|----------------------------------------------------
A|----------------------------------------------------
D|--10-10-10-10---------------------------------------


Verse 2
G|----------------------------------------------------
D|----------------------------------------------------
A|--5-5-5-5-5-5-5-5-5-5-5-5-5-5-----------------------
D|------------------------------8-8-8-8-8-8-8-8-8-8-8-

G|----------------------------------------------------
D|----------------------------------------------------
A|------------8-7-5-----------------------------------
D|-8-8-8-0-7--------10-8-7-7--------------------------



Chorus 2
G|----------------------------------------------------
D|----------------------------------------------------
A|-------5-5-5-------5-5-5----------------------------
D|-0-0-0-------0-0-0-------8-8-8-8-8-8-8-8-10-10-10-10

G|----------------------------------------------------
D|----------------------------------------------------
A|----------------------------------------------------
D|--10-10-10-10---------------------------------------

[ Tab from: http://www.guitartabs.cc/tabs/t/thursday/for_the_workforce_drowning_btab.html ]
Verse 3 Part 1(the part wher Geoff sings,"Just keep making 
copies..." 
G|----------------------------------------------------
D|----------------------------------------------------
A|----------------------------------------------------
D|-0-0-0-0-0-0-0-0-0-0-0-0----------------------------

Verse 3 Part 2 (solo)
G|--10-10-10-14-14-14-14-5-5-5-5-5-5-5-7-7-7-7-7-7-7--
D|----------------------------------------------------
A|----------------------------------------------------
D|----------------------------------------------------

G|-10-10-10-9-9-9-9-----------------------------------
D|----------------------------------------------------
A|----------------------------------------------------
D|----------------------------------------------------


Verse 3 Part 3
G|----------------------------------------------------
D|----------------------------------------------------
A|----------------------------------------------------
D|-8-8-8-8----7-7-7-7----0-----10-10-10-10-10-10------

Verse 3 Part 4
G|----------------------------------------------------
D|----------------------------------------------------
A|----------------------------------------------------
D|-8-8-8-8-8-8-8-8-7-7-7-7-7-7-7-7-0-0-0-0-0-0-0-0----

G|----------------------------------------------------
D|----------------------------------------------------
A|----------------------------------------------------
D|-10-10-10-10-10-10-10-10----------------------------


Outro

G|----------------------------------------------------
D|----------------------------------------------------
A|--------5-5-5-------5-5-5-------5-5-5-------5-5-5---
D|--0-0-0-------0-0-0-------0-0-0-------0-0-0---------

G|----------------------------------------------------
D|----------------------------------------------------
A|--------------------------5-5-5---------------------
D|--8-8-8-8-8-8-8-8-8-8-8-8---------------------------

Thanks to sonixon.
Comments