Thunders Johnny - Born To Lose Chords & Tabs

 

Born To Lose Chords & Tabs

Thunders Johnny Chords & Tabs

Version: 1 Type: Tab 1 rating
1 star 2 stars 3 stars 4 stars 5 stars
comments

Born To Lose Tab

   
Born to lose


Intro:
E:|----------------------|
H:|----------------------|
G:|----------------------|
D:|------5---5-5-5-5-5---|
A:|--5------5-5-5-5-5-4--|
E:|----------------------|

1.Strophe:
           2x                 2x
E:|-----------------|-----------------|
H:|-----------------|-----------------|
G:|-----------------|-3-3-5-5-3-3-5-5-|
D:|-3-3-5-5-3-3-5-5-|-1-1-1-1-1-1-1-1-|
A:|-1-1-1-1-1-1-1-1-|-----------------|
E:|-----------------|-----------------|

     B
Well that's the way it goes
     D#
This city is so cold
    B
And I'm, I'm so slow
       D#
That's what I know

Refrain:               3x
E:|---------------------------------|
H:|---------------------------------|
G:|------------------------7-7------|
D:|--3----------5-8----8-8-----8-8--|
A:|--3----------5-8-----------------|
E:|--1----------3-6-----------------|

  F       B
  Born to lose - I say hey
  Born to lose - I say hey
  Born to lose - I say hey
[ Tab from: http://www.guitartabs.cc/tabs/t/thunders_johnny/born_to_lose_tab.html ]
E:|--------------------------------|
H:|--------------------------------|
G:|--4b(6)-----6b(8)-----8b(10)----|
D:|--------------------------------|
A:|--------------------------------|
E:|--------------------------------|

F#         G#      B
Baby I was born to lose

2.Strophe:
Nothing to do
And nothing to say
Only one thing that I want
It's the only way (I say hey)

  Refrain:
  Born to lose - I say hey
  Born to lose - I say hey
  Born to lose - I say hey
  Baby I was born to lose
  Baby I was born to lose

3.Strophe:
Living in a jungle
It ain't so hard
Living in the city
It'll eat out, eat out your heart

  Refrain:
  Born to lose - I say hey
  Born to lose - I say hey
  Born to lose - I say hey
  Baby I was born to lose
  Baby I was born to lose
  Baby I was born to lose
  Baby I was born to lose

Bridge:
Sologitarre ???
Begleitgitarre = Strophe

  Refrain:
  Born to lose - I say hey
  Born to lose - I say hey
  Born to lose - I say hey
  Baby I was born to lose
  Baby I was born to lose

  Born to lose - I say hey
  Born to lose - I say hey
  Born to lose - I say hey
  Baby I was born to lose
  Baby I was born to lose
  Baby I was born to lose
  Baby I was born to lose...
Comments