Thunderbirds Are Now - Eat This City Chords & Tabs

 

Eat This City Chords & Tabs

Thunderbirds Are Now Chords & Tabs

Version: 1 Type: Tab 0 ratings
1 star 2 stars 3 stars 4 stars 5 stars
comments

Eat This City Tab

   
Eat This City - Thunderbirds Are Now
----------------------------------------

This is about 90% accurate. All the sounds are almost right, but they could be more complex
or played differently than I have transcribed. Anyway, it sounds right enough to pass.

This is my first tab. Rate me well, please.

Intro
                 Am                        Am                     C             D        G
e|----12--12--12\------------------------------222--3-3-------------------|
B|----13--13--13\----1--1--1---1----1--1--1----333-0-0--------------------|
G|----14--14--14\----2--2--2---2----0--0--0----222-0-0--------------------|     x2
D|-------------------2--2--2---2----2--2--2---------0-0-------------------|
A|-------------------0--0--0---0----3--3--3---------2-2-------------------|
E|---------------------------------------------------3-3---x-0-3-5--------|

Bass and drums only from "Night falls..." through "Take a pill." Then, on "belly aches,"

e|-x-x---x-x-------------|
B|-x-x---x-x-------------|
G|-x-x---x-x-------------|
D|-x-x---x-x-------------|
A|-x-x---x-x-------------|
E|-x-x---x-x----0-3-5----|

                 Am                        Am                     C             D        G
e|----12--12--12\------------------------------222--3-3----------------|
B|----13--13--13\----1--1--1---1----1--1--1----333-0-0-----------------|
G|----14--14--14\----2--2--2---2----0--0--0----222-0-0-----------------|
D|-------------------2--2--2---2----2--2--2---------0-0----------------|
A|-------------------0--0--0---0----3--3--3---------2-2----------------|
E|---------------------------------------------------3-3---x-0-3-5-----|

                 Am                        Am                  C                D
e|----12--12--12\-----------------------------------------------|
B|----13--13--13\----1--1--1---1------5-------555\\-------------|
G|----14--14--14\----2--2--2---2------5-------555\\-------------|
D|-------------------2--2--2---2------5-------555\\-------------|
A|-------------------0--0--0---0------3-------777\\-------------|
E|--------------------------------------------------------------|
                                                           on the same......every time

eat this city, eat this city oh
we gotta eat this city, eat this city
      oh
e|-----------------------------------------------|
B|-----------------------------------------------|
G|--10-10-10------------10-10-10-----------------|    Continue through chorus.
D|--10-10-10--10-10-10--10-10-10--10-10-10-------|
A|--8--8--8---10-10-10---8--8--8---10-10-10------|
E|-------------8--8--8--------------8--8--8------|

"Werewolf" through "We'll get you in" is just bass and drums. But on "via secret route," play:

e|-x-x---x-x-------------|
B|-x-x---x-x-------------|
G|-x-x---x-x-------------|
D|-x-x---x-x-------------|
A|-x-x---x-x-------------|
E|-x-x---x-x----0-3-5----|

                 Am                        Am                     C             D        G
e|----12--12--12\------------------------------222--3-3----------------|
B|----13--13--13\----1--1--1---1----1--1--1----333-0-0-----------------|
G|----14--14--14\----2--2--2---2----0--0--0----222-0-0-----------------|
D|-------------------2--2--2---2----2--2--2---------0-0----------------|
A|-------------------0--0--0---0----3--3--3---------2-2----------------|
E|---------------------------------------------------3-3---x-0-3-5-----|
[ Tab from: http://www.guitartabs.cc/tabs/t/thunderbirds_are_now/eat_this_city_tab.html ]
                 Am                        Am                  C                D
e|----12--12--12\-----------------------------------------------|
B|----13--13--13\----1--1--1---1------5-------555\\-------------|
G|----14--14--14\----2--2--2---2------5-------555\\-------------|
D|-------------------2--2--2---2------5-------555\\-------------|
A|-------------------0--0--0---0------3-------777\\-------------|
E|--------------------------------------------------------------|
                                                              the devil......sports coat

eat this city, eat this city oh
we gotta eat this city, eat this city
      oh
e|-------------------------------------------|
B|-------------------------------------------|
G|--10-10-10------------10-10-10-------------|    Continue, once again, through chorus.
D|--10-10-10--10-10-10--10-10-10--10-10-10---|
A|--8--8--8---10-10-10---8--8--8---10-10-10--|
E|-------------8--8--8--------------8--8--8--|

during the synth solo, play these chords:

     Am          Bm        C      G
e|-------------------------------|
B|--1-------------1--------------|
G|--2-------4-----0--------------|
D|--2-------4-----2----3---------|
A|--0-------2-----3----3---------|
E|----------------------5--------|

Shout it, baby! (there is a loose G in there)
They fall on...

Solo

e|------------------------------------------3333---2222---0000000-----|
B|--55555555~~--3333---1111---00000000--------------------------------|
G|--------------------------------------------------------------------|
D|--------------------------------------------------------------------|
A|--------------------------------------------------------------------|
E|--------------------------------------------------------------------|

e|----5--5-3-5-8-5-3---5--5-3-5-8-5-3------12/10--10-10--10/12--12/10--10-10------|
B|------------------------------------------12/10--10-10--10/12--12/10--10-10-----|
G|--------------------------------------------------------------------------------|
D|--------------------------------------------------------------------------------|
A|--------------------------------------------------------------------------------|
E|--------------------------------------------------------------------------------|

e|----5--5-3-5-8-5-3---5--5-3-5-8-5-3------12/10--10-10--10/12--12/10--10-10//------|
B|------------------------------------------12/10--10-10--10/12--12/10--10-10//-----|
G|----------------------------------------------------------------------------------|
D|----------------------------------------------------------------------------------|
A|----------------------------------------------------------------------------------|
E|----------------------------------------------------------------------------------|

Chorus once more

e|-----------------------------------------------|
B|-----------------------------------------------|
G|--10-10-10------------10-10-10-----------------|
D|--10-10-10--10-10-10--10-10-10--10-10-10-------|
A|--8--8--8---10-10-10---8--8--8---10-10-10------|
E|-------------8--8--8--------------8--8--8------|

Synth solo is the same, but sub this in and repeat towards the end:

        D         Am       D       Am
e|--2-2---------22-2------------|
B|--3-3---1-1---33-3--1-1-------|
G|--2-2---2-2---22-2--2-2-------|
D|--------2-2---------2-2-------|
A|--------0-0---------0-0-------|
E|------------------------------|

Eat this city, eat this city

Great F-in song!

Any corrections or telling me how great I am go to fastthumbs@mac.com.

Rock on, Tbirds!
Comments