Thunder - Backstreet Symphony Chords & Tabs

 

Backstreet Symphony Chords & Tabs

Thunder Chords & Tabs

Version: 1 Type: Tab 0 ratings
1 star 2 stars 3 stars 4 stars 5 stars
comments

Backstreet Symphony Tab

Thunder
Backstreet Symphony

Guitar 1:
[ Tab from: http://www.guitartabs.cc/tabs/t/thunder/backstreet_symphony_tab.html ]
|-------------------------------------|
|----0---0---0---0---0---0---0---0----|
|----4---4---4---4---4---4---4---4----|   Reapeat until Verse
|----4---4---4---4---4---4---4---4----|
|-------------------------------------|
|-------------------------------------|

Guitar 2:

|-------------------------------------|
|-------------------------------------|
|-------------------------------------|
|---------------9---------------------|
|-----9----7----7--9------------------|
|-----7----5-------7------------------|
Comments