Thumbs Down - Stupid Girl Chords & Tabs

 

Stupid Girl Chords & Tabs

Thumbs Down Chords & Tabs

Version: 1 Type: Bass Tab 0 ratings
1 star 2 stars 3 stars 4 stars 5 stars
comments

Stupid Girl Bass Tab

Thumbs Down
    -stupid Girl (intro)-
----------------------------
The timing is a bit weird but just listen and you will hear:
[ Tab from: http://www.guitartabs.cc/tabs/t/thumbs_down/stupid_girl_btab.html ]
G|----11----11----14-----14-|
D|-12----12----12----12-----|
A|--------------------------|
E|--------------------------| x2

G|-------------------------------|
D|----12----12-------14----14----|
A|-10----10----10-12----12----12-|
E|-------------------------------|

If you need the rst of the song, mail me
Bertdedecker1@hotmail.com
Comments