Throwing Muses - Shimmer Chords & Tabs

 

Shimmer Chords & Tabs

Throwing Muses Chords & Tabs

Version: 2 Type: Tab 0 ratings
1 star 2 stars 3 stars 4 stars 5 stars
comments

Shimmer Tab

   
#----------------------------------PLEASE NOTE---------------------------------#
#This file is the author's own work and represents their interpretation of the #
#song. You may only use this file for private study, scholarship, or research. #
#------------------------------------------------------------------------------##
Date: Mon, 3 Jul 1995 23:52:22 -0400 (EDT)
From: Edmond Hum 
Subject: TAB: "Shimmer" by Throwing Muses

shimmer

written by kristin hersh
from 'university'
transcribed by edmond hum (rlp@interlog.com)

---start---


 e------------------------------------------|
 b---5-----5-----5-4---5-4------------------|
 g-----4-----4-------4-----4----------------|
 d------------------------------------------|
 a------------------------------------------|
 e------------------------------------------|

 e---------------------5s12-----------------|
 b---5-----5-----5-4---5s12-----------------|
 g-----4-----4-------4----------------------|
 d------------------------------------------|
 a------------------------------------------|
 e------------------------------------------|

 e---12------12------12-11----12-11---------|
 b------12------12---------12-------12------|
 g------------------------------------------|
 d------------------------------------------|
 a------------------------------------------|
 e------------------------------------------|

 e---12------12------12-11----12s5---0-0----|
 b------12------12---------12-12s5---0-0----|
 g------------------------------------------|
 d------------------------------------------|
 a------------------------------------------|
 e------------------------------------------|


G    D       E
 you in the water
G    D          E
underneath the tarp
         G      D        E
it don't rain under the water
         G      D        E
it don't rain inside my heart


      G      D   E
don't follow me home
      G      D   E
don't follow me home


 G          D       E
you walking in the gulf stream
G      D          E
tail between your legs
         G
it's not funny
D      E                 G     D       E
if you ask me, it's just funny in your head
[ Tab from: http://www.guitartabs.cc/tabs/t/throwing_muses/shimmer_tab_ver_2.html ]

[G D B - G D B]

              G        D
hang on, hang on, hang on
     B                 G  D B
hang on, hang on, hang on


   G         D            E            G       D           E
my tongue is filled with sugar, and my back is filled with pain
     G         D      E                    G       D     E
your tongue is on my shoulder, and there's nothing on my brain


      G      D   E
don't follow me home
      G      D   E
don't follow me home


G     D           E             G
shake barrels of whisky down my throat
     D         E
i'll still see straight
G      D        E         G        D        E
  ride out on a pony even loose, i won't be late


[G D B - G D B]

              G        D
hang on, hang on, hang on
     B                 G  D B
hang on, hang on, hang on





G    D         E             G     D       E
i'll ride on a pony till i'm dusty and i'm old
   G       D           E                G          D     E
my head is filled with flowers, and i'm dressed in shiny gold


    G          D     E
i'm dressed in shiny gold
D       E            G       D     E
keep an eye on me, i shimmer on horizons
D       E            G       D     E
keep an eye on me, i shimmer on horizons


  G       D     B
i shimmer on horizons
  G       D     B
a shimmer on horizons
  G       D     B
i shimmer on horizons
  G       D     B
a shimmer on horizons
  G       D       B
a shimmer in your eyes, son
  G       D       B
a shimmer in your eyes, son
  G       D       B
a shimmer in your eye

---end---
Comments