Throwdown - Step It Up Chords & Tabs

 

Step It Up Chords & Tabs

Throwdown Chords & Tabs

Version: 1 Type: Tab 0 ratings
1 star 2 stars 3 stars 4 stars 5 stars
comments

Step It Up Tab

   
Throwdown-"Step It Up"-Haymaker
Tuning- B F# B E G# C#
       (Top to Bottom)
Tabbed by - numguitarist@yahoo.com

I tabbed this out because there is no guitar tab for
this song which i think is stupid because this is one 
of the best songs off "Haymaker". This may not be 
accurate but if you can think of a different way played
then let me know at - numguitarist@yahoo.com

Intro:Guitar 1 & 2 Cant tell figure it out
                                    1,2               1
|------------|-------------------------|---------------|
|------------|-------------------------|---------------|
|------------|-------------------------|---------------|
|-----0------|-0--0--0~-~-~-~-~-~-~-~-~|-0--0--0~~~~~~~|
|-----0------|-0--0--0~-~-~-~-~-~-~-~-~|-0--0--0~~~~~~~|
|-----0------|-0--0--0---3-4-3-0-1-3-1-|-0--0--0~~~~~~~|
 Volume Swell
           2
|-----------|
|-----------|
|-----------|
|-----------|
|-/////////-|
|-/////////-|do something like this with fret hand and pick 

Riff 1 Guitar 1 & 2
|--------------------------------------------------|
|--------------------------------------------------|
|--------------------------------------------------|
|-0--0--0-----------------0--0--0--5-5/7-7-7/8-8-8-|x4
|-0--0--0--3-4-3-0-1-3-1--0--0--0--3-3/5-5-5/6-6-6-|
|-0--0--0--3-4-3-0-1-3-1--0--0--0------------------|

Verse 1 Guitar 1 & 2 
|---------------------|
|-------------2-------|
|-------------3-------|Guitar 2 slide's at the end  
|-0~~~//0~~~//0~~~//0-|of this listen its there
|-0~~~//0~~~//0~~~//0-|
|-0~~~//0~~~//0~~~//0-|

"Believe in Youself"              
|--------------------------------|------------|
|--------------------------------|------------|
|--------------------------------|------------|
|--------------------------------|------------|x2
|-//2h3-3333--5/7--3h5-5555--7/8-|-0--3--1--4-|
|-//2h3-3333--5/7--3h5-5555--7/8-|-0--3--1--4-|
        ....           ....
^this may not be right but close 
if you know a better way let me know

Verse 2
|---------------------|
|-------------2-------|
|-------------3-------| 
|-0~~~//0~~~//0~~~//0-|
|-0~~~//0~~~//0~~~//0-|
|-0~~~//0~~~//0~~~//0-|
[ Tab from: http://www.guitartabs.cc/tabs/t/throwdown/step_it_up_tab.html ]
Chorus - Guitar 1 & 2      "Step It Up"
   0                     1,3,5,7                     2,4,6,8
|---|---------------------------|---------------------------|
|---|---------------------------|---------------------------|
|---|---------------------------|---------------------------|
|-/-|-0-------------------------|-0-------------------------|x4
|-/-|-0--0-0-0--8h7p0-4h3p0-1h3-|-0--0-0-0--8h7p0-4h3p0-1h3-|
|-/-|-0--0-0-0--8h7p0-4h3p0-1h3-|-0--0-0-0--8h7p0-4h3p0-1h3-|
         . . .      .     .          . . .      .     .

"Believe in Youself"              
|--------------------------------|------------|
|--------------------------------|------------|
|--------------------------------|------------|
|--------------------------------|------------|x2
|-//2h3-3333--5/7--3h5-5555--7/8-|-0--3--1--4-|
|-//2h3-3333--5/7--3h5-5555--7/8-|-0--3--1--4-|
        ....           ....

Riff 2(palm muted and variations of open at end)
 
|--------------------------------------------------|
|--------------------------------------------------|
|--------------------------------------------------|
|-0--0--0-----------------0--0--0--5-5/7-7-7/8-8-8-|x2
|-0--0--0--3-4-3-0-1-3-1--0--0--0--3-3/5-5-5/6-6-6-|
|-0--0--0--3-4-3-0-1-3-1--0--0--0------------------|
  .  .  .  . . . . . . .  .  .  .  . . . . . . . .  

|------------------------|  |--------|
|------------------------|  |--------|
|------------------------|  |--------|
|-0--0--0----------------|x3|--------|x1
|-0--0--0--3-4-3-0-1-3-1-|  |------0-|
|-0--0--0--3-4-3-0-1-3-1-|  |-0-0--0-|
  .  .  .  . . . . . . . 

Riff 1 Guitar 1 & 2
               "Step It Up"
|--------------------------------------------------|
|--------------------------------------------------|
|--------------------------------------------------|
|-0--0--0-----------------0--0--0--5-5/7-7-7/8-8-8-|x2
|-0--0--0--3-4-3-0-1-3-1--0--0--0--3-3/5-5-5/6-6-6-|
|-0--0--0--3-4-3-0-1-3-1--0--0--0------------------|


Chorus - Guitar 1 & 2 "Step It Up"
                     1,3,5,7                     2,4,6,8
|---------------------------|---------------------------|
|---------------------------|---------------------------|
|---------------------------|---------------------------|
|-0-------------------------|-0-------------------------|x2
|-0--0-0-0--8h7p0-4h3p0-1h3-|-0--0-0-0--8h7p0-4h3p0-1h3-|
|-0--0-0-0--8h7p0-4h3p0-1h3-|-0--0-0-0--8h7p0-4h3p0-1h3-|
         . . .      .     .          . . .      .     .
End With
|----------------|
|----------------|
|----------------|
|-0--0--0-~~~~~~~|
|-0--0--0-~~~~~~~|
|-0--0--0-~~~~~~~|

thats it a very brutal song if anything is wrong let me know please
Comments