Throwdown - Slip Chords & Tabs

 

Slip Chords & Tabs

Throwdown Chords & Tabs

Version: 1 Type: Tab 0 ratings
1 star 2 stars 3 stars 4 stars 5 stars
comments

Slip Tab

throwdown
slip


Tuning: CGCFAD  

* Palm Mute

 Guitar 1
|----------------------| 0:00
|----------------------|
|----------------------|
|--5~~~~~~~~--0--------| *turn volume up while vibrating the note
|-------------0--------|
|-------------0--------|

Guitar 1 & 2
|----------------------------------------------------| 0:16 + 0:48 + 1:57 + 2:40
|----------------------------------------------------|
|----------------------------------------------------|
|-0-0--0-0-0--0-34-4-34-4---0-0--0-0-0--0-3333-4444--|
|-0-0--0-0-0--0-34-4-34-4---0-0--0-0-0--0-3333-4444--|
|-0-0--0-0-0--0-34-4-34-4---0-0--0-0-0--0-3333-4444--|
[ Tab from: http://www.guitartabs.cc/tabs/t/throwdown/slip_tab.html ]
Guitar 1 & 2
|----------------------------------------------------| 0:38 + 2:51
|----------------------------------------------------|
|----------------------------------------------------|
|-0-0--0-0-0--0-34-4-34-4---0-0--0-0-0--0-3333-4444--|
|-0-0--0-0-0--0-34-4-34-4---0-0--0-0-0--0-3333-4444--|
|-0-0--0-0-0--0-34-4-34-4---0-0--0-0-0--0-3333-4444--|
  * *  * * *  *             * *  * * *  *
Guitar 1 & 2
|---------------------------------| 1:14
|---------------------------------|
|---------------------------------|
|-0-0-0-0-0-0-0-0-8-7-5-7-3-1-0-1-|
|-0-0-0-0-0-0-0-0-8-7-5-7-3-1-0-1-|
|-0-0-0-0-0-0-0-0-8-7-5-7-3-1-0-1-|
    * * * * * * * <-(heavy Palm Muting)
Guitar 1
|--------------------------------------------------------| 2:19
|--------------------------------------------------------|
|--------------------------------------------------------|
|-0-0000000-12-11-11-11-9-11-11-11--0-0000000-3333-6666--|
|-0-0000000-12-11-11-11-9-11-11-11--0-0000000-3333-6666--|
|-0-0000000-12-11-11-11-9-11-11-11--0-0000000-3333-6666--|
    *******                            *******
Guitar 2
|-------------------------------------------------| 2:19
|-------------------------------------------------|
|-----------8-7-7-7-5-7-7-7-----------------------|
|-0-0000000-6-5-5-5-3-5-5-5--0-0000000-3333-6666--|
|-0-0000000-6-5-5-5-3-5-5-5--0-0000000-3333-6666--|
|-0-0000000-6-5-5-5-3-5-5-5--0-0000000-3333-6666--|
    *******                    *******
Comments