Throwdown - Nothing Left Chords & Tabs

 

Nothing Left Chords & Tabs

Throwdown Chords & Tabs

Version: 1 Type: Tab 0 ratings
1 star 2 stars 3 stars 4 stars 5 stars
comments

Nothing Left Tab

   
Thowdown
Nothing Left


Tuning: CGCFAD  
 
 0:00
D|------------------------------|
A|------------------------------|
F|------------------------------|
C|-4-4-xx-4-4-4-x-0-0-0-x-x-x-x-|
G|-4-4-xx-4-4-4-x-0-0-0-x-x-x-x-|
C|-4-4-xx-4-4-4-x-0-0-0-x-x-x-x-|
  guitar 1&2

  0:14
D|--------------------------------------------------|
A|--------------------------------------------------|
F|--------------------------------------------------|
C|---4-4-4-4---5-5-5-5---7-7-7-7---8-8-8-7-7-7-7-7--|
G|---4-4-4-4---5-5-5-5---7-7-7-7---8-8-8-7-7-7-7-7--|
C|-0-4-4-4-4-0-5-5-5-5-0-7-7-7-7-0-8-8-8-7-7-7-7-7--|
  guitar 1 

  0:20
D|---------------------|----------------|
A|---------------------|----------------|
F|---6---------7-------|-7-7-------8-8--|
C|---X---------X-------|-7-7-------8-8--|
G|---4---------5-------|-7-7-------8-8--|
C|---------------------|----------------|
  guitar 2 		guitar 1&2

  0:25 + 1:06
D|--------------------------------------------------|
A|--------------------------------------------------|
F|---6-6-6-6---7-7-7-7------------------------------|
C|---6-6-6-6---7-7-7-7---7-7-7-7---8-8-8-7-7-7-7-7--|
G|---4-4-4-4---5-5-5-5---7-7-7-7---8-8-8-7-7-7-7-7--|
C|-0-4-4-4-4-0-5-5-5-5-0-7-7-7-7-0-8-8-8-7-7-7-7-7--|
  guitar 1&2

D|-----------------------------------------|-----|
A|-----------------------------------------|-----|
F|---6-6-6-6---7-7-7-7---------------------|-----|
C|---6-6-6-6---7-7-7-7--0-3--0-1--0-3--0-1-|=3-1-|
G|---4-4-4-4---5-5-5-5--0-3--0-1--0-3--0-1-|=3-1-|
C|-0-4-4-4-4-0-5-5-5-5--0-3--0-1--0-3--0-1-|=3-1-|
[ Tab from: http://www.guitartabs.cc/tabs/t/throwdown/nothing_left_tab.html ]
  0:45 + 1:27
D|-----------------------------------------------|
A|-----------------------------------------------|
F|-----------------------------------------------|
C|-0-0-0-00--1-3-0-0-00--1-1-0-0-00--1-3-0-0-00--|
G|-0-0-0-00--1-3-0-0-00--1-1-0-0-00--1-3-0-0-00--|
C|-0-0-0-00--1-3-0-0-00--1-1-0-0-00--1-3-0-0-00--|
  guitar 1&2

  1:47   ...theres nothing left!!
D|----------------------------------------|
A|----------------------------------------|
F|----------------------------------------|
C|-0-0--0-00-1-0--0-0-0-------------0-1---|
G|-0-0--0-00-1-0--0-0-0-------------0-1---|
C|-0-0--0-00-1-0--0-0-0-------------0-1---|
  guitar 1&2

  1:58
D|----------------------------------------|
A|----------------------------------------|
F|----------------------------------------|
C|-0-0--0-00-1-0--0-0-0--0-0-0-0-00-0-1---|
G|-0-0--0-00-1-0--0-0-0--0-0-0-0-00-0-1---|
C|-0-0--0-00-1-0--0-0-0--0-0-0-0-00-0-1---|
  guitar 1&2
  
  2:19
D|-----------------------------------------|--------------|
A|-----------------------------------------|--------------|
F|-----------------------------------------|--------------|
C|-----------------------------------------|----1--4-3-1--|
G|-----------------------------------------|-00-1--4-3-1--|
C|-0-0-00-0-0-0--00-0--00-1^--0-0-00-0-0-0-|-00-1--4-3-1--|
  guitar 1				    guitar 1&2
  
  2:33
D|--------------------------------------------------------|
A|--------------------------------------------------------|
F|--------------------------------------------------------|
C|-0-0-00-0-0-0---------------------------------1--4-3-1--|
G|-0-0-00-0-0-0------------------------------00-1--4-3-1--|
C|-0-0-00-0-0-0------------------------------00-1--4-3-1--|
  guitar 1&2

i dont think i need to show where the palm muting is, its pretty obvious
Comments