Throwdown - Intro Never Back Down Chords & Tabs

 

Intro Never Back Down Chords & Tabs

Throwdown Chords & Tabs

Version: 1 Type: Tab 0 ratings
1 star 2 stars 3 stars 4 stars 5 stars
comments

Intro Never Back Down Tab

   
Artist: Throwdown
Song: Intro (Never Back Down)
Album: Haymaker
Tabber: theguitarmanX
Tuning: Drop B (B F# B E G# C#)

Main Riff
C#|---------------------------|
G#|---------------------------|
E |---------------------------|
B |-0----1---1-3-1-0----6-3-6-|
F#|-0-00-1-0-1-3-1-0-00-6-3-6-|
B |-0-00-1-0-1-3-1-0-00-6-3-6-|
PM    ..   .         ..

Riff 2
C#|---------------------------|---------|
G#|---------------------------|---------|
E |---------------------------|---------|
B |-0----1---1-3-1-0----6-3-6-|---------|
F#|-0-00-1-0-1-3-1-0-00-6-3-6-|-0--0--0-|<--add this when needed
B |-0-00-1-0-1-3-1-0-00-6-3-6-|-0--0--0-|
PM    ..   .         ..         .  .  .
[ Tab from: http://www.guitartabs.cc/tabs/t/throwdown/intro_never_back_down_tab.html ]
Riff 3
C#|----------------|
G#|----------------|
E |----------------|
B |----0----0----0-|
F#|-00-0-00-0-00-0-|
B |-00-0-00-0-00-0-|
PM  ..   ..   ..

Riff 4
C#|--------------------------------|-----------------|
G#|----------play-x3---------------|-----------------|
E |--------------------------------|-----------------|
B |--------0----0----0-------------|----0----0----0~-|
F#|-----00-0-00-0-00-0-3-3-3-------|-00-0-00-0-00-0~-|
B |-x//-00-0-00-0-00-0-------6-6-3-|-00-0-00-0-00-0~-|
PM      ..   ..   ..                 ..   ..   ..

Riff 5
C#|-----------------------------|---------------|
G#|-------play-x3---------------|--play-on-4th--|
E |-----------------------------|-----time------|
B |-----------------------------|---------------|
F#|-00-000-00-----0-000---------|---------------|
B |-00-000-00-----0-000-4-0-0-1-|-0-0-4-0-0-<1>-|
PM  .. ... ..     . ...

This song is 100% and kicks ass. Enjoy!
Comments