Throwdown - Hopeless Chords & Tabs

 

Hopeless Chords & Tabs

Throwdown Chords & Tabs

Version: 1 Type: Tab 0 ratings
1 star 2 stars 3 stars 4 stars 5 stars
comments

Hopeless Tab

Throwdown
Hopeless


Tuning: CGCFAD  

  0:00 + 0:59	 0:05 + 1:02
D|--------|       |---------||---|
A|-4--5---|       |---------||---|
F|-8--9---|	|---------||---|
C|--------|	|---------||---|
G|--------|	|-2--3--0-||-5-|
C|--------|	|-2--3--0-||-5-|
  guitar1	          guitar2

  0:15 + 0:52 + 1:34
D|----------------------------------------------------|
A|----------------------------------------------------|
F|----------------------------------------------------|
C|-0-2-2-0-2-2-0-2-2-5-5-5--0-2-2-0-2-2-5-5-5-1-1-1---|
G|-0-2-2-0-2-2-0-2-2-5-5-5--0-2-2-0-2-2-5-5-5-1-1-1---|
C|-0-2-2-0-2-2-0-2-2-5-5-5--0-2-2-0-2-2-5-5-5-1-1-1---|
  guitars 1&2
[ Tab from: http://www.guitartabs.cc/tabs/t/throwdown/hopeless_tab.html ]
  0:36 + 1:24
D|-------------------------------------------------------------------||---|
A|-------------------------------------------------------------------||---|
F|-------------------------------------------------------------------||---|
C|--6-6-6-6-6-6-6-6-7-7-7-7-7-7-7-7-4-4-4-4-4-4-4-4-4-4-4-4-5-5-5-5--||-2-|
G|--6-6-6-6-6-6-6-6-7-7-7-7-7-7-7-7-4-4-4-4-4-4-4-4-4-4-4-4-5-5-5-5--||-2-|
C|--6-6-6-6-6-6-6-6-7-7-7-7-7-7-7-7-4-4-4-4-4-4-4-4-4-4-4-4-5-5-5-5--||-2-|
  guitar1		                                   end on second time ^
  
  0:36 + 1:24
D|-------------------------------------------------------------------||---|
A|-------------------------------------------------------------------||---|
F|--888888888888888-999999999999999-66666666666666666666666-7777777--||-4-|
C|-------------------------------------------------------------------||---|
G|-------------------------------------------------------------------||---|
C|-------------------------------------------------------------------||---|
  guitar2			                          end on second time ^

  0:46
D|-----------------------------------------------------|
A|-----------------------------------------------------|
F|-----------------------------------------------------|
C|-0-2-2-0-2-2-0-2-2-5-5-5-6--0-2-2-0-2-2-5-5-5-1-1-1--|
G|-0-2-2-0-2-2-0-2-2-5-5-5-6--0-2-2-0-2-2-5-5-5-1-1-1--|
C|-0-2-2-0-2-2-0-2-2-5-5-5-6--0-2-2-0-2-2-5-5-5-1-1-1--|
  guitar1

  0:46
D|---------------------------------------------------|
A|--------------------------------------pick slide---|
F|---------------------------------------------------|
C|-------------------5-5-5-6---------------////------|
G|-------------------5-5-5-6---------------////------|
C|-------------------5-5-5-6---------------////------|
  guitar2

  1:53
D|---------------------------|
A|---------------------------|
F|---------------------------|
C|-2-2-0-3-0--0-000--0-000---|
G|-2-2-0-3-0--0-000--0-000---|
C|-2-2-0-3-0--0-000--0-000---|
  guitars 1&2

  2:05
D|----------||-----------------|
A|----------||-----------------|
F|----------||-----------------|
C|-2-2-0-3--||-----------------|
G|-2-2-0-3--||-----------------|
C|-2-2-0-3--||--0-000--0-000---|
  guitar 1&2   guitar 1

  2:13
D|---------------------------------------------------|
A|---------------------------------------------------|
F|---------------------------------------------------|
C|-2-2-0-3-------------------2-2-0-3-----------------|
G|-2-2-0-3-------------------2-2-0-3----------2-3-5b-|
C|-2-2-0-3----0-000--0-000---2-2-0-3----0-0000-------|
  guitar 1&2

Thats all the riffs, easy as *** really, but make a big ***in impact, 
the riffs go here and there, just figure it out
Comments