Throwdown - Hate For The Week Chords & Tabs

 

Hate For The Week Chords & Tabs

Throwdown Chords & Tabs

Version: 1 Type: Tab 0 ratings
1 star 2 stars 3 stars 4 stars 5 stars
comments

Hate For The Week Tab

Throwdown
Hate For The Week


Palm Mute - *

Tuning: CGCFAD

Same For Both Guitars
[ Tab from: http://www.guitartabs.cc/tabs/t/throwdown/hate_for_the_week_tab.html ]
 0:00 + 0:35 + 1:44
D|----------------------------------------|
A|----------------------------------------|
F|----------------------------------------|
C|--5555555-5555555--0-0-00-0-00-0-0-0-0--|
G|--3333333-3333333--0-0-00-0-00-0-0-0-0--|
C|----------3333333--0-0-00-0-00-0-0-0-0--|
                       * ** * ** * * * *
 0:24 + 0:56 + 2:09
D|---------------------------------------------------------|
A|---------------------------------------------------------|
F|---------------------------------------------------------|
C|-0-10-x-12-x-8-88-8--10-12-10-8--0-10-x-12-x-8-88-8-8888-|
G|-0-10-x-12-x-8-88-8--10-12-10-8--0-10-x-12-x-8-88-8-8888-|
C|-0-10-x-12-x-8-88-8--10-12-10-8--0-10-x-12-x-8-88-8-8888-|
  
 1:17                   1:17  
D|--------------------||-------------------------------|
A|--------------------||-------------------------------|
F|--------------------||-------------------------------|
C|-0-0-00-0-000-0-0-0-||-------------------------------|
G|-0-0-00-0-000-0-0-0-||-0-0-0-0-0-0-0-0-0-0-0-0-0-0-0-|
C|-0-0-00-0-000-0-0-0-||-0-0-0-0-0-0-0-0-0-0-0-0-0-0-0-|
     * ** * *** * *        * * * * * * * * * * * * *
 1:20 + 1:32
D|---------------------------------------|
A|---------------------------------------|
F|---------------------------------------|
C|-8-0-0-0-1-4-3-0-1-3-4--00000-00000-00-|
G|-8-0-0-0-1-4-3-0-1-3-4--00000-00000-00-|
C|-8-0-0-0-1-4-3-0-1-3-4--00000-00000-00-|
     * * * * * * * * * *  ***** ***** **
 1:26 + 1:38
D|---------------------------------------------------|
A|---------------------------------------------------|
F|---------------------------------------------------|
C|-8-0-0-0--000-0-0-\0-1-3-4-0-1-3-4-0-1-3-4-0-1-3-4-|
G|-8-0-6-5--555-6-5-\0-1-3-4-0-1-3-4-0-1-3-4-0-1-3-4-|
C|-8-0--------------\0-1-3-4-0-1-3-4-0-1-3-4-0-1-3-4-|
                     * * * * * * * * * * * * * * * *
 2:20
D|-----------------------------------------------|
A|-----------------------------------------------|
F|-----------------------------------------------|
C|-0-0--0-0--0-0--0-0--0-0--0-0--0-1-3-4-0-1-3-4-|
G|-0-0--0-0--0-0--0-0--0-0--0-0--0-1-3-4-0-1-3-4-|
C|-0-0--0-0--0-0--0-0--0-0--0-0--0-1-3-4-0-1-3-4-|
   * *  * *  * *  * *  * *  * *  * * * * * * * *
 2:36
D|--------------------------------------------|
A|--------------------------------------------|
F|--------------------------------------------|
C|-0-0--00--0-0--00--0-0--00--0-1-3-4-0-1-3-4-|
G|-0-0--00--0-0--00--0-0--00--0-1-3-4-0-1-3-4-|
C|-0-0--00--0-0--00--0-0--00--0-1-3-4-0-1-3-4-|
   * *  **  * *  **  * *  **  * * * * * * * *

Ahhh Yeah..
Comments